De Lá Pra Cá

Chico Rey e Paraná

Composição de: Carlos Randall / Kassiano Guerra / Luiz Berto
tom: G
[Intro] G  D  C  G  D  G  C  G

E|----------------------------------------------------------------|
B|------8-8-8-----------8| –--7-8-10-8-7------5-3-5-----------------|
G|--7---------7-----7---------------------------------------------|
D 9---------------9-----------------------------------------------|
A|----------------------------------------------------------------|
E|----------------------------------------------------------------|

E|----------------------------------------------------------------|
B|---------3-5-3----3-5-5-5-5-3-----3-5----8-7-5-3-5-3-------5-3--|
G|-2-4-5----------5---------------5------------------------5------|
D|----------------------------------------------------------------|
A|----------------------------------------------------------------|
E|----------------------------------------------------------------|

E|--------------------------------------8-7-----------------------|
B|-----------5----------------3-------------10-8------------------|
G|-4-5-7-7-----2---2-4-5-5------4-5-------------------------------|
D|----------------------------------------------------------------|
A|----------------------------------------------------------------|
E|----------------------------------------------------------------|

G                            D
De lá pra cá a vida mudou tanto,
C               D            G
De lá pra cá mudou o meu viver,
G                                  D
Se eu era um cara triste pelos cantos
C                   D         G
Já não sinto tanta falta de você

D                             G
De lá pra cá cuidei da minha vida
D                            G
Não tive mais vontade de te ver
D                          G
Tirei o seu perfume da cabeça
D               C     D    G
De lá pra cá eu aprendi viver

G                               D
Quando você foi embora era madrugada
C                  D                 G
tonta da cabeça, louca, blusa sem vestir
G                                    D
E eu ali cabeça baixa olhando pra calçada
C                    D          G
No escuro lentamente vi você sumir.

              D
Com você eu chorei,chorei
              G
Com voce eu sofri, sofri
                D
Com você eu errei, errei
              G
Com você aprendi, com você aprendi
Página 1 / 1

Letras e título
Acordes e artista

resetar configurações
OK