Cifra Club

Aprenda

Banditismo Por Uma Questão De Classe

Chico Science

Tab de baixo: Principal
Quer fazer aulas de música com a gente? Responda essas perguntas
e nos ajude nesse projeto! →
[1:15 - 1:56]

G|---------------------------------------|
D|-----7-(7)-5-5-------------------------|
A|--0-------------7-7-5-3----------------|
E|---------------------------------------|

[1:56 - 2:40]

G|-----------------------------------------|
D|-----7-77-x-5-67-7-----------------------|
A|-----------------------------------------|
E|-----------------------------------------|

[2:59 - 3:16]

G|---------------------------------------|
D|-----7-(7)-5-5-------------------------|
A|--0-------------7-7-5-3----------------|
E|---------------------------------------|

[3:16 - 4:13]

G|-----------------------------------------|
D|-----7-77-x-5-67-7-----------------------|
A|-----------------------------------------|
E|-----------------------------------------|

[4:13 - 4:30]

G|---------------------------------------|
D|-----7-(7)-5-5-------------------------|
A|--0-------------7-7-5-3----------------|
E|---------------------------------------|

[4:30 - Fim da musica] - Nessa parte, o baixista faz a levada cromática (567) um pouco mais rápido.

G|-----------------------------------------|
D|-----7-77-0-5677-7-----------------------|
A|-----------------------------------------|
E|-----------------------------------------|
Composição de Chico Science
Colaboração e revisão:
  • Alexandre Brito
203 exibições

0 comentários

Ver todos os comentários

Conseguiu tocar?

0 Tocaram 0 Ainda não

Grave um vídeo tocando Banditismo Por Uma Questão De Classe e nos envie!

00:00 / 00:00
Outros vídeos desta música
Repetir Qualidade Automático
Outros vídeos desta música
00:00 / 00:00
Automático

Cifra Club Pro

Aproveite o Cifra Club com benefícios exclusivos e sem anúncios
Cifra Club Pro
Aproveite o Cifra Club com benefícios exclusivos e sem anúncios
OK