Cifra Club

Aprenda

Um Passeio Num Mundo Livre

Chico Science

Cifra: Principal (violão e guitarra)
Já pensou em usar uma coleção de roupas do Cifra Club? Responda as perguntas abaixo e nos ajude nessa missão! →
tom: G

Intro: (1x)
E|-5-5-5-5-5------5-5-5-5-------------------5-5-5-5---------------5-5-5-5----------------|
B|-5-5-5-5-5------5-5-5-5-----5-5-5-5-5-5---5-5-5-5---0/1---------5-5-5-5---5-5-5-5-5-5--|
G|-----------4/5--------------5-5-5-5-5-5-----------------0/2-----5-5-5-5---5-5-5-5-5-5--|
D|----------------------------5-5-5-5-5-5-----------------------------------5-5-5-5-5-5--|
A|---------------------------------------------------------------------------------------|
E|---------------------------------------------------------------------------------------|
(Junto com a intro)
Um passo a frente
E você não está mais no mesmo lugar

RIFF 01
E|-5-5-5-5-5------5-5-5-5-------------------5-5-5-5---------------5-5-5-5-----------------|
B|-5-5-5-5-5------5-5-5-5-----5-5-5-5-5-5---5-5-5-5---0/1---------5-5-5-5---5-5-5-5-5-5---|
G|-----------5-5--------------5-5-5-5-5-5------------------0/2----5-5-5-5---5-5-5-5-5-5---|
D|----------------------------5-5-5-5-5-5-----------------------------------5-5-5-5-5-5---|
A|----------------------------------------------------------------------------------------|
E|----------------------------------------------------------------------------------------|

Eu só quero andar
Nas ruas de peixinhos
Andar pelo Brasil
Ou em qualquer cidade
Andando pelo mundo
Sem ter sociedade
Andar com meus amigos, e eletricidade
Andar com as meninas
Sem ser incomodado


RIFF 02
E|---5-5-5-5-5-5-5-5---5-5-5-5-------------------|
B|---5-5-5-5-5-5-5-5---5-5-5-5---5-5-5-5-5-5-----|
G|-------------------------------5-5-5-5-5-5-----|  (4X)
D|-------------------------------5-5-5-5-5-5-----|
A|-----------------------------------------------|
E|-----------------------------------------------|

Ná Ná Ná Ná Ná Ná Ná Ná Ná! (4X)



RIFF 03 (2X)
E|---5-5-5-5---------------5-5-5-5-----------------|
B|---5-5-5-5---0/1---------5-5-5-5---5-5-5-5-5-5---|
G|------------------0/2--------------5-5-5-5-5-5---|
D|-----------------------------------5-5-5-5-5-5---|
A|-------------------------------------------------|
E|-------------------------------------------------|

RIFF 04
E|-5-5-5-5-5------5-5-5-5-------------------5-5-5-5-5-----5-5-5-5------------------|
B|-5-5-5-5-5------5-5-5-5-----5-5-5-5-5-5---5-5-5-5-5-----5-5-5-5----5-5-5-5-5-5---|
G|-----------5-5--------------5-5-5-5-5-5-------------5-5------------5-5-5-5-5-5---|
D|----------------------------5-5-5-5-5-5----------------------------5-5-5-5-5-5---|
A|---------------------------------------------------------------------------------|
E|---------------------------------------------------------------------------------|

Eu só quero andar nas ruas do Brasil
Andar com mundo livre
Sem ter sociedade
Andando pelo mundo
E todas as cidades
Andar com meus amigos
Sem ser incomodado
Andar com as meninas
E eletricidade



RIFF 02
E|---5-5-5-5-5-5-5-5---5-5-5-5---------------------------|
B|---5-5-5-5-5-5-5-5---5-5-5-5-----------5-5-5-5-5-5-----|
G|---------------------------------------5-5-5-5-5-5-----|  (4X)
D|---------------------------------------5-5-5-5-5-5-----|
A|-------------------------------------------------------|
E|-------------------------------------------------------|

Ná Ná Ná Ná Ná Ná Ná Ná Ná! (4X)



RIFF 02
E|---5-5-5-5-5-5-5-5---5-5-5-5-------------------|
B|---5-5-5-5-5-5-5-5---5-5-5-5---5-5-5-5-5-5-----|
G|-------------------------------5-5-5-5-5-5-----|  (4X)
D|-------------------------------5-5-5-5-5-5-----|
A|-----------------------------------------------|
E|-----------------------------------------------|

Segura essa levada, segura o maracatu
Segura essa levada, segura o maracatu
Segura essa levada, segura o maracatu
Segura essa levada, segura o maracatu



RIFF 05
E|-5-5-5-5-5------5-5-5-5-------------------------------------------------------------|
B|-5-5-5-5-5------5-5-5-5-----5-5-5-5-5-5--5-5---5-5-5-5---5-5-7-7--------------------|
G|-----------5-5--------------5-5-5-5-5-5--5-5---5-5-5-5---5-5-7-7--------------------|
D|----------------------------5-5-5-5-5-5--5-5---5-5-5-5---5-5-7-7--------------------|
A|------------------------------------------------------------------------------------|
E|------------------------------------------------------------------------------------|

RIFF 06
E|---7----|
B|---7----|
G|---7----|
D|---7----|
A|--------|
E|--------|
Eu só quero andar, nas ruas do Brasil
Eu só quero andar, em todas as cidades
Eu só quero andar, sem ser incomodado
Andar com as meninas, e eletricidade.
Composição de Chico Science
Colaboração e revisão:
  • klynsman
1.539 exibições
    • ½ Tom
    • A
    • Bb
    • B
    • C
    • Db
    • D
    • Eb
    • E
    • F
    • F#
    • G
    • Ab
  • Adicionar à lista

    0 comentários

    Ver todos os comentários

    Conseguiu tocar?

    0 Tocaram 0 Ainda não

    Grave um vídeo tocando Um Passeio Num Mundo Livre e nos envie!

    00:00 / 00:00
    Outros vídeos desta música
    Repetir Qualidade Automático
    Outros vídeos desta música
    00:00 / 00:00
    Automático

    Cifra Club Pro

    Aproveite o Cifra Club com benefícios exclusivos e sem anúncios
    Cifra Club Pro
    Aproveite o Cifra Club com benefícios exclusivos e sem anúncios
    OK