Cifra Club

Needled 24/7

Children of Bodom

Cifra: Principal (violão e guitarra)
tom: E
> - silencio         fb - full bend           b - bend        . - prolongar nota
<

INTRO:
|-----------------------------------|---------------------------|
|-----------------------------------|---------------------------|
|-----------------------------------|---------------------------|
|--10--9----------------------------|-----------12---7---10---9-|
|---8--7----------------------------|-----------10---5----8---7-|
|--------0-0-0-0-0-0-0--0-0-0-0-0-0-|-0--0-0-0------------------|

|--------------------------|-------------------------|-----------------------------|
|--------------------------|-------------------------|-----------------------------|
|--------------------------|-------------------------|-----------------------------|
|--------------------------|--9--7--9----------10--9-|-----------------------------|
|--------------------------|--7--5--7---10--9---8--7-|-----------------------------|
|--0-0-0-0-0-0-0--0-0-0--0-|-------------8--7--------|--0-0-0-0-0-0-0--0-0-0-0-0-0-|

|--------------------------|------------------------|------------|
|--------------------------|------------------------|------------|
|--------------------------|------------------------|------------|
|------------12---7--10--9-|---------------------4.-|----5--7--9-|
|------------10---5---8--7-|---------------------2.-|----3--5--7-|
|--0--0-0-0----------------|--0-0-0-0-0-0-0--0-0----|------------|

intro guitar solo:
|------|--------------------------------------------|--------------------------------------------|
|--0b.-|--15-12----12-15-12-15-12----12-15-12-15-12-|--15-12----12-15-12-15-12----12-15-12-15-12-|
|------|--------15----------------15----------------|--------15----------------15----------------|
|------|--------------------------------------------|--------------------------------------------|
|------|--------------------------------------------|--------------------------------------------|
|------|--------------------------------------------|--------------------------------------------|

|--15-14-12----14-12-------12----------------------|------------------------------|
|-----------15-------15-13----15-13-12-15-13-12----|----------12------------------|
|-----------------------------------------------14-|--12--14------14---12--11-----|
|--------------------------------------------------|---------------------------12-|
|--------------------------------------------------|------------------------------|
|--------------------------------------------------|------------------------------|

main theme
|--------------------------|-------------------------|-----7--8--------------7-----|
|-----8--10--7--7--7--8----|--------7-----------7----|-----------10--10--10-----8--|
|--9---------------------9-|--9--9-----7--7--9-----7-|--9--------------------------|
|--------------------------|-------------------------|-----------------------------|
|--------------------------|-------------------------|-----------------------------|
|--------------------------|-------------------------|-----------------------------|

|--------------------------|--------------------------|-------------------------|
|--8--8--10--7--7-----7----|-----8--10--7--7--7--8----|--------7-----------7----|
|------------------7-----7-|--9---------------------9-|--9--9-----7--7--9-----7-|
|--------------------------|--------------------------|-------------------------|
|--------------------------|--------------------------|-------------------------|
|--------------------------|--------------------------|-------------------------|

|-----7--8--------------7----|-----------------|
|-----------10--10--10-----8-|--8--8--10--7--8-|
|--9-------------------------|-----------------|
|----------------------------|-----------------|
|----------------------------|-----------------|
|----------------------------|-----------------|

verse 1
|-----------------------------|----------------------------|-------------------------------|
|-----------------------------|----------------------------|-------------------------------|
|-----------------------------|----------------------------|-------------------------------|
|-10--9-----------------------|----------------------------|--10--9------------------------|
|--8--7-----------------------|---------------10-14--9--12-|---8--7------------------------|
|-------0--0-0-0-0-0-0-0--0-0-|-0-0-0-0-0--0---------------|---------0--0-0-0-0-0-0-0--0-0-|

|-------------------------|----------|----------|-------------------------------|
|-------------------------|----------|----------|-------------------------------|
|-------------------------|----------|----------|-------------------------------|
|--------9--7--9----------|----------|----------|--10--9------------------------|
|--------7--5--7----------|--7---10--|--7---10--|---8--7------------------------|
|--0--0------------8-8-7--|--5----8--|--5----8--|---------0--0-0-0-0-0-0-0--0-0-|

|------------------------|-------------------------------|------------------------------|
|------------------------|-------------------------------|------------------------------|
|------------------------|-------------------------------|------------------------------|
|-------9--7--9----------|-10--9-------------------------|------------------------------|
|-------7--5--7---10--9--|--8--7-------------------------|---------------10--14--9--12--|
|-0--0-------------8--7--|--------0--0-0-0-0-0-0-0--0-0--|-0-0-0-0-0--0-----------------|

|-------------------------------|-----------------------|----------|----------|
|-------------------------------|-----------------------|----------|----------|
|-------------------------------|-----------------------|----------|----------|
|--10--9------------------------|--------9--7--9--------|----------|----------|
|---8--7------------------------|--------7--5--7--------|--7---10--|--7---10--|
|---------0--0-0-0-0-0-0-0--0-0-|--0--0-----------8-8-7-|--5----8--|--5----8--|

|-------------------------------|--------------------------|
|-------------------------------|--------------------------|
|-------------------------------|--9--8--9--8--------------|
|--10---9-----------------------|--------------6--------6--|
|---8---7-----------------------|-----------------7--8-----|
|----------0--0-0-0-0-0-0-0--0--|--------------------------|

Bridge 1
|                                      2x|
|----------------------|-----|-----|-----|
|----------------------|-----|-----|-----|
|--------->---->---->--|-->--|-->--|-->--|
|---------<----<----<--|--<--|--<--|--<--|
|--2--2----------------|-----|-----|-----|
|--0--0----------------|-----|-----|-----|

Main Theme
|--------------------------|-------------------------|-----7--8--------------7----|
|-----8--10--7--7--7--8----|--------7-----------7----|-----------10--10--10-----8-|
|--9---------------------9-|--9--9-----7--7--9-----7-|--9-------------------------|
|--------------------------|-------------------------|----------------------------|
|--------------------------|-------------------------|----------------------------|
|--------------------------|-------------------------|----------------------------|

|--------------------------|--------------------------|-------------------------|
|--8--8--10--7--7-----7----|-----8--10--7--7--7--8----|--------7-----------7----|
|------------------7-----7-|--9---------------------9-|--9--9-----7--7--9-----7-|
|--------------------------|--------------------------|-------------------------|
|--------------------------|--------------------------|-------------------------|
|--------------------------|--------------------------|-------------------------|

|-----7--8--------------7----|-----------------|
|-----------10--10--10-----8-|--8--8--10--7--8-|
|--9-------------------------|-----------------|
|----------------------------|-----------------|
|----------------------------|-----------------|
|----------------------------|-----------------|

Bridge 2
|---------------------|-----|-----|---------------------|---------------------|-----|-----|
|---------------------|-----|-----|---------------------|---------------------|-----|-----|
|--------->---->---->-|-->--|-->--|-->--->--------------|--------->---->---->-|-->--|-->--|
|---------<----<----<-|--<--|--<--|--<---<------9--8--5-|---------<----<----<-|--<--|--<--|
|--2--2---------------|-----|-----|-------------7--6--3-|--2--2---------------|-----|-----|
|--0--0---------------|-----|-----|----------0----------|--0--0---------------|-----|-----|

|--------------------------|
|--------------------------|
|--------------------------|
|--9--9--9--9--9--9--9--9--|
|--9--9--9--9--9--9--9--9--|
|--7--7--7--7--7--7--7--7--|

Chorus
|----------|----------|-------------------------------|--------------------------------|
|----------|----------|-------------------------------|--------------------------------|
|----------|----------|-------------------------------|--------------------------------|
|--2----4--|--5----4--|-------------------------------|--------------------------------|
|--2----4--|--5----5--|--3--3-3-3--3-3-3--3-3-3-5-3-2-|--3--3-3-3--3-3-3--3-3-3-5p3p2--|
|--0----2--|--3-------|-------------------------------|--------------------------------|

|----------|----------|----------------------------------|----------------------------------|
|----------|----------|----------------------------------|----------------------------------|
|--5----7--|--9----7--|----------------------------------|----------------------------------|
|--5----7--|--9----7--|----------------------------------|----------------------------------|
|--3----5--|--7----5--|--7-7-7-7-7-7-7-7-7-7-7-7-7-8-7-5-|-7-7-7-7-7-7-7-7-7-7-7-7-7-8-7-5--|
|----------|----------|----------------------------------|----------------------------------|

|----------|----------|--------------------------------|-------------------------------|
|----------|----------|--------------------------------|-------------------------------|
|----------|----------|--------------------------------|-------------------------------|
|--2----4--|--5----4--|--------------------------------|-------------------------------|
|--2----4--|--5----5--|--3--3-3-3--3-3-3--3-3-3-5-3-2--|-3--3-3-3--3-3-3--3-3-3-5-3-2--|
|--0----2--|--3-------|--------------------------------|-------------------------------|

|----------|----------|-----------------------------------|-------------------|
|----------|----------|-----------------------------------|-------------------|
|--5----7--|--9----7--|-----------------------------------|------>---->---->--|
|--5----7--|--9----7--|-----------------------------------|------<----<----<--|
|--3----5--|--7----5--|--7-7-7-7-7-7-7-7-7-7-7-7-7-8-7-5--|--7----------------|
|----------|----------|-----------------------------------|-------------------|

Keyboard solo 1
|-----------------------------------|----------------------------|
|-----------------------------------|----------------------------|
|-----------------------------------|-------------------------9--|
|-----------------------------------|-------------------------9--|
|-----------------------------------|-------------------------7--|
|--0-0-0-0-0-0-0-0-0-0-0-0-0-0-0-0--|-0-0-0-0-0-0-0-0-0-0-0-0----|

|-----------------------------------|----------------------------|
|-----------------------------------|----------------------------|
|-----------------------------------|-------------------------10-|
|-----------------------------------|-------------------------10-|
|-----------------------------------|--------------------------8-|
|--0-0-0-0-0-0-0-0-0-0-0-0-0-0-0-0--|-0-0-0-0-0-0-0-0-0-0-0-0----|

|-------------------------------------------------|----------------------------------------|
|-------------------------------------------------|----------------------------------------|
|-------------------------------------------------|-------------------------------------9--|
|-------------------------------------------------|-------------------------------------9--|
|-------------------------------------------------|-------------------------------------7--|
|--0--0--0--0--0--0--0--0--0--0--0--0--0--0--0--0-|-0--0--0--0--0--0--0--0--0--0--0--0-----|

|-----------------------------------|-----------------|
|-----------------------------------|-----------------|
|-----------------------------------|--5-------7------|
|-----------------------------------|--5---5---7---7--|
|-----------------------------------|--3---5---5---7--|
|--0-0-0-0-0-0-0-0-0-0-0-0-0-0-0-0--|------3-------5--|

Verse 2
|---------------------------------|-------------------------------|
|---------------------------------|-------------------------------|
|---------------------------------|-------------------------------|
|--10---9-------------------------|-------------------------------|
|---8---7-------------------------|----------------10--14--9--12--|
|----------0--0-0-0-0-0-0-0--0-0--|--0-0-0-0-0--0-----------------|

|---------------------------------|------------------------|-----------|-----------|
|---------------------------------|------------------------|-----------|-----------|
|---------------------------------|------------------------|-----------|-----------|
|--10---9-------------------------|-------9--7--9----------|-----------|-----------|
|---8---7-------------------------|-------7--5--7----------|--7----10--|--7----10--|
|----------0--0-0-0-0-0-0-0--0-0--|-0--0------------8-8-7--|--5-----8--|--5-----8--|

|---------------------------------|------------------------|--------------------------------|
|---------------------------------|------------------------|--------------------------------|
|---------------------------------|------------------------|--------------------------------|
|--10---9-------------------------|-------9--7--9----------|--10---9------------------------|
|---8---7-------------------------|-------7--5--7---10--9--|---8---7------------------------|
|----------0--0-0-0-0-0-0-0--0-0--|-0--0-------------8--7--|----------0--0-0-0-0-0-0-0--0-0-|

|-------------------------------|--------------------------------|-----------------------|
|-------------------------------|--------------------------------|-----------------------|
|-------------------------------|--------------------------------|-----------------------|
|-------------------------------|--10---9------------------------|------9--7--9----------|
|----------------10--14--9--12--|---8---7------------------------|------7--5--7----------|
|--0-0-0-0-0--0-----------------|----------0--0-0-0-0-0-0-0--0-0-|-0--0-----------8-8-7--|

|-----------|-----------|-------------------------------|--------------------------|
|-----------|-----------|-------------------------------|--------------------------|
|-----------|-----------|-------------------------------|--------------------------|
|-----------|-----------|--10---9-----------------------|--9--9--9--9--9--9--9--9--|
|--7----10--|--7----10--|---8---7-----------------------|--9--9--9--9--9--9--9--9--|
|--5-----8--|--5-----8--|----------0--0-0-0-0-0-0-0--0--|--7--7--7--7--7--7--7--7--|

Chorus 2
|----------|----------|-------------------------------|-------------------------------|
|----------|----------|-------------------------------|-------------------------------|
|----------|----------|-------------------------------|-------------------------------|
|--2----4--|--5----4--|-------------------------------|-------------------------------|
|--2----4--|--5----5--|--3--3-3-3--3-3-3--3-3-3-5-3-2-|-3--3-3-3--3-3-3--3-3-3-5-3-2--|
|--0----2--|--3-------|-------------------------------|-------------------------------|

|----------|----------|-----------------------------------|----------------------------------|
|----------|----------|-----------------------------------|----------------------------------|
|--5----7--|--9----7--|-----------------------------------|----------------------------------|
|--5----7--|--9----7--|-----------------------------------|----------------------------------|
|--3----5--|--7----5--|--7-7-7-7-7-7-7-7-7-7-7-7-7-8-7-5--|-7-7-7-7-7-7-7-7-7-7-7-7-7-8-7-5--|
|----------|----------|-----------------------------------|----------------------------------|

|----------|----------|--------------------------------|--------------------------------|
|----------|----------|--------------------------------|--------------------------------|
|----------|----------|--------------------------------|--------------------------------|
|--2----4--|--5----4--|--------------------------------|--------------------------------|
|--2----4--|--5----5--|--3--3-3-3--3-3-3--3-3-3-5-3-2--|--3--3-3-3--3-3-3--3-3-3-5-3-2--|
|--0----2--|--3-------|--------------------------------|--------------------------------|

|----------|----------|----------------------------------|-----------------------------------|
|----------|----------|----------------------------------|-----------------------------------|
|--5----7--|--9----7--|----------------------------------|-----------------------------------|
|--5----7--|--9----7--|----------------------------------|-----------------------------------|
|--3----5--|--7----5--|--7-7-7-7-7-7-7-7-7-7-7-7-7-8-7-5-|--7-7-7-7-7-7-7-7-7-7-7-7-7-8-7-5--|
|----------|----------|----------------------------------|-----------------------------------|

Interlude
|--------------------------|--------------------------|--------------------------|
|--------------------6-----|--8-----------8-----6-----|--------------------6-----|
|--8--5--5--5--8--5-----5--|-----5--5--5-----5-----5--|--8--5--5--5--8--5-----5--|
|--------------------------|--------------------------|--------------------------|
|--------------------------|--------------------------|--------------------------|
|--------------------------|--------------------------|--------------------------|

|-----------------------|--------------------------|--------------------------|
|--8--------------------|--------------------6-----|--8-----------8-----6-----|
|-----5--5--5--6--5-----|--8--5--5--5--8--5-----5--|-----5--5--5-----5-----5--|
|--------------------8--|--------------------------|--------------------------|
|-----------------------|--------------------------|--------------------------|
|-----------------------|--------------------------|--------------------------|

|--------------------------|---------------------|--------------------------|--------------------------|
|--------------------6-----|---------------------|--------------------6-----|--8-----------8-----6-----|
|--8--5--5--5--8--5-----5--|--8--5--7--5--7---7--|--8--5--5--5--8--5-----5--|-----5--5--5-----5-----5--|
|--------------------------|---------------------|--------------------------|--------------------------|
|--------------------------|---------------------|--------------------------|--------------------------|
|--------------------------|---------------------|--------------------------|--------------------------|

|---------------------|---------------------|----------------------------|---------------------------|
|---------------------|---------------------|----------------------8-----|--10-----------10-----8----|
|--8-------7-------8--|-----7-------10---7--|--10--7--7--7--10--7-----7--|------7--7--7------7-----7-|
|--8----8--8----8--8--|--8--8----8--8----8--|----------------------------|---------------------------|
|---------------------|---------------------|----------------------------|---------------------------|
|---------------------|---------------------|----------------------------|---------------------------|

|----------------------------|---------------------------|----------------------------|
|----------------------8-----|--10-----------10-----8----|----------------------8-----|
|--10--7--7--7--10--7-----7--|------7--7--7------7-----7-|--10--7--7--7--10--7-----7--|
|----------------------------|---------------------------|----------------------------|
|----------------------------|---------------------------|----------------------------|
|----------------------------|---------------------------|----------------------------|

|----------------------------|----------------------------|----------------------------|
|--10-----------10-----8-----|----------------------8-----|--10-----------10-----8-----|
|------7--7--7------7-----7--|--10--7--7--7--10--7-----7--|------7--7--7------7-----7--|
|----------------------------|----------------------------|----------------------------|
|----------------------------|----------------------------|----------------------------|
|----------------------------|----------------------------|----------------------------|

Guitar solo
|---------17--------------|------------17----------|-------20------22h23p22h23-22--20--|
|--18--20----20-18-17-----|------18-20----20-18----|-----------21----------------------|
|---------------------19.-|---19----------------17-|--20-------------------------------|
|-------------------------|------------------------|-----------------------------------|
|-------------------------|------------------------|-----------------------------------|
|-------------------------|------------------------|-----------------------------------|

|--21h22p21h22p21-17h18p17h18h17-----|--------------------------------17----15-17-18-15--|
|------------------------------------|--18-17-15----15-17-18-15-17-18----18--------------|
|--------------------------------19--|-----------17--------------------------------------|
|------------------------------------|---------------------------------------------------|
|------------------------------------|---------------------------------------------------|
|------------------------------------|---------------------------------------------------|

|--17-18-20-19-18-17-18-17----------------------|------------17b--|--20fb-20fb-20fb-20fb-20fb-20fb-20fb-20fb--|
|--------------------------20-19-18-17-18-17----|-------14fb------|-------------------------------------------|
|--------------------------------------------19-|--15fb-----------|-------------------------------------------|
|-----------------------------------------------|-----------------|-------------------------------------------|
|-----------------------------------------------|-----------------|-------------------------------------------|
|-----------------------------------------------|-----------------|-------------------------------------------|

Keybord solo
|--------------------------|--------------------------|--------------------------|
|--------------------------|--------------------------|--------------------------|
|--------------------------|--------------------------|--------------------------|
|--3--3--3--3--5--5--5--5--|--7--7--7--7--7--7--7--7--|--------------8--8--8--8--|
|--1--1--1--1--3--3--3--3--|--5--5--5--5--5--5--5--5--|--6--6--6--6--6--6--6--6--|
|--------------------------|--------------------------|--------------------------|

|--------------------------|--------------------------|--------------------------|
|--------------------------|--------------------------|--------------------------|
|--------------------------|--------------------------|--------------------------|
|--7--7--7--7--7--7--5--5--|--3--3--3--3--5--5--5--5--|--7--7--7--7--7--7--7--7--|
|--5--5--5--5--5--5--3--3--|--1--1--1--1--3--3--3--3--|--5--5--5--5--5--5--5--5--|
|--------------------------|--------------------------|--------------------------|

|--------------------------|--------------------------|
|--------------------------|--------------------------|
|--------------------------|--------------------------|
|--------------8--8--8--8--|--7--7--7--7--7--7--5--5--|
|--6--6--6--6--6--6--6--6--|--5--5--5--5--5--5--3--3--|
|--4--4--4--4--------------|--------------------------|

Main Theme
|---------------------------|-------------------------|-----7--8--------------7----|
|-----8--10--7--7--7--8-----|--------7-----------7----|-----------10--10--10-----8-|
|--9---------------------9--|--9--9-----7--7--9-----7-|--9-------------------------|
|---------------------------|-------------------------|----------------------------|
|---------------------------|-------------------------|----------------------------|
|---------------------------|-------------------------|----------------------------|

|--------------------------|--------------------------|--------------------------|
|--8--8--10--7--7-----7----|-----8--10--7--7--7--8----|--------7-----------7-----|
|------------------7-----7-|--9---------------------9-|--9--9-----7--7--9-----7--|
|--------------------------|--------------------------|--------------------------|
|--------------------------|--------------------------|--------------------------|
|--------------------------|--------------------------|--------------------------|

|-----7--8--------------7----|------------------|---------------------------|
|-----------10--10--10-----8-|--8--8--10--7--8--|---------------------------|
|--9-------------------------|------------------|------>---->---------------|
|----------------------------|------------------|--2---<----<---5---7---10--|
|----------------------------|------------------|--2------------3---5----8--|
|----------------------------|------------------|--0------------------------|

Bridge 3
|------------------------|------|------|------------------------|--------------------------|
|------------------------|------|------|------------------------|--------------------------|
|---------->---->---->---|-->---|-->---|-->--->--->-------------|--------------------------|
|----------<----<----<---|--<---|--<---|--<---<---<-------------|--------------------------|
|--2---2-----------------|------|------|----------------------7-|--------------------------|
|--0---0-----------------|------|------|--------------8---9-----|--0--0--0--0--0--0--0--0--|

|--------------------------|--------------------------|---------------------------------|
|--------------------------|--------------------------|---------------------------------|
|--------------------------|--------------------------|--------->-----------------------|
|--------------------------|--------------------------|--7--9---<-----------------------|
|--------------------------|--------------------------|--5--7---------------------------|
|--0--0--0--0--0--0--0--0--|--0--0--0--0--0--0--0--0--|---------------------------------|

Chorus 3
|----------|----------|-------------------------------|--------------------------------|
|----------|----------|-------------------------------|--------------------------------|
|----------|----------|-------------------------------|--------------------------------|
|--2----4--|--5----4--|-------------------------------|--------------------------------|
|--2----4--|--5----4--|--3--3-3-3--3-3-3--3-3-3-5-3-2-|--3--3-3-3--3-3-3--3-3-3-5-3-2--|
|--0----2--|--3----2--|-------------------------------|--------------------------------|

|----------|----------|-----------------------------------|-----------------------------------|
|----------|----------|-----------------------------------|-----------------------------------|
|--5----7--|--9----7--|-----------------------------------|-----------------------------------|
|--5----7--|--9----7--|-----------------------------------|-----------------------------------|
|--3----5--|--7----5--|--7-7-7-7-7-7-7-7-7-7-7-7-7-8-7-5--|--7-7-7-7-7-7-7-7-7-7-7-7-7-8-7-5--|
|----------|----------|-----------------------------------|-----------------------------------|

|----------|----------|-------------------------------|--------------------------------|
|----------|----------|-------------------------------|--------------------------------|
|----------|----------|-------------------------------|--------------------------------|
|--2----4--|--5----4--|-------------------------------|--------------------------------|
|--2----4--|--5----5--|--3--3-3-3--3-3-3--3-3-3-5-3-2-|--3--3-3-3--3-3-3--3-3-3-5-3-2--|
|--0----2--|--2-------|-------------------------------|--------------------------------|

|----------|------------|-----------------------------------|------------------------------------|
|----------|------------|-----------------------------------|------------------------------------|
|--4----7--|--9-----11--|--9-9-9-9-9-9-9-9-9-9-9-9-9-10-9-7-|--9-9-9-9-9-9-9-9-9-9-9-9-9-10-9-7--|
|--5----7--|--10----12--|-----------------------------------|------------------------------------|
|----------|------------|-----------------------------------|------------------------------------|
|----------|------------|-----------------------------------|------------------------------------|

|-----------------------------------|-----------------------------------|-----------------------|
|-----------------------------------|-----------------------------------|-----------------------|
|--9-9-9-9-9-9-9-9-9-9-9-9-9-10-9-7-|--9-9-9-9-9-9-9-9-9-9-9-9-9-10-9-7-|-----------------------|
|-----------------------------------|-----------------------------------|-----4--5--7--5--4-----|
|-----------------------------------|-----------------------------------|--7-----------------7--|
|-----------------------------------|-----------------------------------|-----------------------|

|--------|-------------------|
|--------|-------------------|
|----5.--|------>---->---->--|
|--------|--2---<----<----<--|
|--------|--2----------------|
|--------|--0----------------|
00:00 / 00:00
Outros vídeos desta música
Repetir
Outros vídeos desta música
Composição de Alexi Laiho
Colaboração e revisão:
  • jefferson silva
4.970 exibições
    • ½ Tom
    • A
    • Bb
    • B
    • C
    • Db
    • D
    • Eb
    • E
    • F
    • F#
    • G
    • Ab
  • Adicionar à lista

    0 comentários

    Ver todos os comentários

    Conseguiu tocar?

    0 Tocaram 0 Ainda não

    Grave um vídeo tocando Needled 24/7 e nos envie!

    Entre para oCifra Club PRO

    Tenha acesso a benefícios exclusivos no App e no Site

    • Chega de anúncios

    • Prioridade de compra em lançamentos

    • Mais recursos no app do Afinador

    • Atendimento Prioritário

    • Descontos nos produtos Cifra Club

    • Ajude a produzir mais conteúdo

    00:00 / 00:00

    Cifra Club Pro

    Aproveite o Cifra Club com benefícios exclusivos e sem anúncios
    Cifra Club Pro
    Aproveite o Cifra Club com benefícios exclusivos e sem anúncios
    OK