Cifra Club

Silent Night, Bodom Night

Children of Bodom

Cifra: Principal (violão e guitarra)
tom: B
Tune down one whole step

Riff A (2 guitars, 8 bars)
|-----------------|-----------------|-----------------|-----------------|
|-----------------|-----------------|-----------------|-----------------|
|-----------------|-----------------|-----------------|-----------------|
|-222-222-222-222-|-2-------5---4---|-5---2---4-------|-2---------------|
|-----------------|-----2-----------|-------------5---|-----------------|
|-----------------|-----------------|-----------------|-----------------|
|
|-----------------|-----------------|-----------------|-----------------|
|-----------------|-----------------|-----------------|-----------------|
|-----------------|-----------------|-----------------|-----------------|
|-----------------|---------12--11--|-9-------7-------|-9---------------|
|-777-777-777-777-|-777-777-10--9---|-7-------5-------|-7---------------|
|-----------------|-----------------|-----------------|-----------------|

|-----------------|-----------------|------------------------|--------------|
|-----------------|-----------------|-10b-----10----8--------|--------------|
|-----------------|---------9--11---|-------------------11---|-9------------|
|-222-222-222-222-|-2---9-----------|------------------------|--------------|
|-----------------|-----------------|------------------------|--------------|
|-----------------|-----------------|------------------------|--------------|
|
|-----------------|-----------------|------------------------|--------------|
|-----------------|-----------------|------------------------|--------------|
|-----------------|-----------------|------------------------|--------------|
|-----------------|---------9---7---|------------------------|-9------------|
|-777-777-777-777-|-777-777-7---5---|-3------------------5---|-7------------|
|-----------------|-----------------|----------3-----7-------|--------------|

   (2 lead guitars)                      (in unison)             (in voices)
|--3-0-0-0-0-0-5-0-0-0-0-0-|-7-0-0-0-0-0-----------|-------------|-------0-|
|--5-0-0-0-0-0-7-0-0-0-0-0-|-8-0-0-0-0-0-7----10---|-8-----7-----|-------0-|
|*-------------------------|-----------------------|----9-----7--|-9-------|
|*-------------------------|-----------------------|-------------|---------|
|--------------------------|-----------------------|-------------|---------|
|--------------------------|-----------------------|-------------|---------|
|
|--------------------------|-----------------------|-------------|---------|
|--------------------------|-----------------------|-------------|---------|
|*-------------------------|-----------------------|-------------|---------|
|*-------------------------|-------------12---11---|-9-----7-----|-9-------|
|--7-7-7-7-7-7-7-7-7-7-7-7-|-7-7-7-7-7-7-10---9----|-7-----5-----|-7-------|
|--------------------------|-----------------------|-------------|---------|

                                                    1.
|-3-0-0-0-0-0-5-0-0-0-0-0-|-7-0-0-0-0-0-----------|-------------|-10b~-----0-|
|-5-0-0-0-0-0-7-0-0-0-0-0-|-8-0-0-0-0-0-7----10---|-8-----7-----|----------0-|
|-------------------------|-----------------------|----9-----7--|-----------*|
|-------------------------|-----------------------|-------------|-----------*|
|-------------------------|-----------------------|-------------|------------|
|-------------------------|-----------------------|-------------|------------|
|
|-------------------------|-----------------------|-------------|------------|
|-------------------------|-----------------------|-------------|------------|
|-------------------------|-----------------------|-------------|-----------*|
|-------------------------|-------------9----7----|-5-----7-----|-9---------*|
|-7-7-7-7-7-7-7-7-7-7-7-7-|-7-7-7-7-7-7-7----5----|-3-----5-----|-7----------|
|-------------------------|-----------------------|-------------|------------|

  2.
|-----------15-|-12~--------|
|-8-----7------|------------|
|----9---------|------------|
|--------------|------------|
|--------------|------------|
|--------------|------------|
|
|--------------|------------|
|--------------|------------|
|--------------|------------|
|-5-----7------|-9----------|
|-3-----5------|-7----------|
|--------------|------------|

Verse
Riff A 1 1/2 times (=12 bars)

|-----------------|-----------------|-------------|------------|
|-----------------|-----------------|-------------|------------|
|-----------------|-----------------|-------------|------------|
|-----------------|-----------------|-2--2--2--2--|-2--2-------|
|-777-777-777-777-|-777-777-777-777-|-2--2--2--2--|-2--2-------|
|-----------------|-----------------|-0--0--0--0--|-0--0-------|

|--------------|----------------|-------------|-------------|
|--------------|----------------|-------------|-------------|
|--------------|----------------|-------------|-------------|
|--------------|----------------|-------------|-------------|
|-10-----------|-10---9br---7---|-6-----------|----6--7--9--|
|--------------|----------------|-------------|-7-----------|
|
|--------------|---------------------|-------------|-------------|
|--------------|---------------------|-------------|-------------|
|--------------|---------------------|-------------|-------------|
|--------------|---------------------|-------------|-------------|
|-7------------|-7--------9-------7--|-6-----------|-------------|
|--------------|---------------------|-------------|-7-----------|

|---------------|---------------------|-------------|-------------------|
|---------------|---------------------|----------7--|-7br-7-------------|
|---------------|---------------------|----7--9-----|-----------9---7---|
|---------------|---------------------|-9-----------|-------------------|
|-10------10-10-|-10---9br--------7---|-------------|-------------------|
|---------------|---------------------|-------------|-------------------|
|
|---------------|---------------------|-------------|-------------------|
|---------------|---------------------|-------------|-------------------|
|---------------|---------------------|-------------|-------------------|
|---------------|-5--------7-------5--|-4-----------|-4-----4---4---4---|
|-7-------------|---------------------|-------------|-2-----2---2---2---|
|---------------|---------------------|-------------|-------------------|

Riff B (2 guitars, 16 bars)
|-----------------|--------------------|-----------------|-----------------|
|-----------------|--------------------|-----------------|-----------------|
|-----------------|--------------------|-----------------|-----------------|
|-5---5---4-----4-|----4---4-----------|-----------------|-----------------|
|-------------7---|------------7---5-7-|-----7-7-7---7-7-|-7---7-7-7-7-7-7-|
|-----------------|--------------------|-----------------|-----------------|
|
|-----------------|--------------------|-----------------|-----------------|
|-----------------|--------------------|-----------------|-----------------|
|---------5-------|--------7-----------|-----------------|-----------------|
|-----5---5-------|----7---7-----------|-----------------|-----------------|
|-3-------3-----5-|--------5-------5-7-|-----7-7-7---7-7-|-7---7-7-7-7-7-7-|
|-----------------|--------------------|-----------------|-----------------|

|-----------------|--------------------|------------7----8-|-7-----------------|
|-----------------|--------------------|---8-7-10-8---10---|---8-10-7-8--------|
|---------7-----7-|------------------9-|-------------------|------------9-11-7-|
|-9-----------9---|--------------------|-------------------|-------------------|
|-----------------|--------------------|-------------------|-------------------|
|-----------------|--------------------|-------------------|-------------------|
|
|-----------------|--------------------|-------------------|-------------------|
|-----------------|--------------------|-------------------|-------------------|
|---------5-------|--------7-----------|-------------------|-------------------|
|-----5---5-------|----7---7-----------|-------------------|-------------------|
|-3-------3-----5-|--------5-------5-7-|-----7-7--7---7--7-|-7---7--7-7-7-7--7-|
|-----------------|--------------------|-------------------|-------------------|

|-----------------|--------------------|-----------------|-----------------|
|-----------------|--------------------|-----------------|-----------------|
|-----------------|--------------------|-----------------|-----------------|
|-5---5---4-----4-|----4---4-----------|-----------------|-----------------|
|-------------7---|------------7---5-7-|-----7-7-7---7-7-|-7---7-7-7-7-7-7-|
|-----------------|--------------------|-----------------|-----------------|
|
|-----------------|--------------------|-----------------|-----------------|
|-----------------|--------------------|-----------------|-----------------|
|---------5-------|--------7-----------|-----------------|-----------------|
|-----5---5-------|----7---7-----------|-----------------|-----------------|
|-3-------3-----5-|--------5-------5-7-|-----7-7-7---7-7-|-7---7-7-7-7-7-7-|
|-----------------|--------------------|-----------------|-----------------|

|------------------------|-----14--15--17--|-17b-------17~------|----------|
|-15br----15---13---15---|-17--------------|--------------------|----------|
|------------------------|-----------------|--------------------|----------|
|------------------------|-----------------|--------------------|----------|
|------------------------|-----------------|--------------------|----------|
|------------------------|-----------------|--------------------|----------|
|
|------------------------|-----------------|--------------------|----------|
|------------------------|-----------------|--------------------|----------|
|-9-------------5--------|-----------------|------------7-------|----------|
|-9-------------5--------|-----------------|-5----------7-------|----------|
|-7-------------3--------|-----------------|-5----------5-------|----------|
|------------------------|-----------------|-3------------------|----------|

|-15-0-0-0-0-0-17-0-0-0-0-0-|-19-0-0-0-0-0-15-0-0-0-0-0-|
|---------------------------|---------------------------|
|---------------------------|---------------------------|
|---------------------------|---------------------------|
|---------------------------|---------------------------|
|---------------------------|---------------------------|

|----15-19p15-------------14-17p14-17-|-15--------------------0---|
|-17----------17-------15-------------|---------------------------|
|----------------16-14----------------|---------------------------|
|-------------------------------------|---------------------------|
|-------------------------------------|---------------------------|
|-------------------------------------|---------------------------|

|-15-0-0-0-0-0-17-0-0-0-0-0-|-19-0-0-0-0-0-15-0-0-0-0-0-|
|---------------------------|---------------------------|
|---------------------------|---------------------------|
|---------------------------|---------------------------|
|---------------------------|---------------------------|
|---------------------------|---------------------------|

|----12-15p12-------------14-17p14-17-|-15--------------------0---|
|-13----------13-------15-------------|---------------------------|
|----------------12-14----------------|---------------------------|
|-------------------------------------|---------------------------|
|-------------------------------------|---------------------------|
|-------------------------------------|---------------------------|

|-15-0-0-0-0-0-17-0-0-0-0-0-|-19-0-0-0-0-0-15-----------|
|---------------------------|---------------------17----|
|---------------------------|---------------------------|
|---------------------------|---------------------------|
|---------------------------|---------------------------|
|---------------------------|---------------------------|

|----------17----17-19-17-19-17-------|-----------------------0---|
|-20-19-20----20----------------20-19-|-20------------------------|
|-------------------------------------|---------------------------|
|-------------------------------------|---------------------------|
|-------------------------------------|---------------------------|
|-------------------------------------|---------------------------|

|-15-0-0-0-0-0-17-0-0-0-0-0-|-19-0-0-0-0-0-15-----------|
|---------------------------|---------------------19----|
|---------------------------|---------------------------|
|---------------------------|---------------------------|
|---------------------------|---------------------------|
|---------------------------|---------------------------|

|----------17-19-21----------19-20-22-|-22b-----------------/14---|
|-17-19-20----------19-20-22----------|---------------------------|
|-------------------------------------|---------------------------|
|-------------------------------------|---------------------------|
|-------------------------------------|---------------------------|
|-------------------------------------|---------------------------|

|-17-14-14-14-14-14-19-14-14-14-14-14-|-21-14-14-14-14-14-17-----16-----|
|-------------------------------------|---------------------------------|
|-------------------------------------|---------------------------------|
|-------------------------------------|---------------------------------|
|-------------------------------------|---------------------------------|
|-------------------------------------|---------------------------------|

|----17-21p17-------------16-19p16-19-|-17--------------------14--|
|-19----------19-------17-------------|---------------------------|
|----------------18-16----------------|---------------------------|
|-------------------------------------|---------------------------|
|-------------------------------------|---------------------------|
|-------------------------------------|---------------------------|

|-17-14-14-14-14-14-19-14-14-14-14-14-|-21-14-14-14-14-14-17-14--16-----|
|-------------------------------------|---------------------------------|
|-------------------------------------|---------------------------------|
|-------------------------------------|---------------------------------|
|-------------------------------------|---------------------------------|
|-------------------------------------|---------------------------------|

|----14-17p14-------------16-19p16-19-|-17--------------------0---|
|-15----------15-------17-------------|---------------------------|
|----------------14-16----------------|---------------------------|
|-------------------------------------|---------------------------|
|-------------------------------------|---------------------------|
|-------------------------------------|---------------------------|

|-15-0-0-0-0-0-17-0-0-0-0-0-|-19-0-0-0-0-0-15-0-0-0-0-0-|
|---------------------------|---------------------------|
|---------------------------|---------------------------|
|---------------------------|---------------------------|
|---------------------------|---------------------------|
|---------------------------|---------------------------|

|----15-19p15-------------14-17p14-17-|-15--------------------0---|
|-17----------17-------15-------------|---------------------------|
|----------------16-14----------------|---------------------------|
|-------------------------------------|---------------------------|
|-------------------------------------|---------------------------|
|-------------------------------------|---------------------------|

|-15-0-0-0-0-0-17-0-0-0-0-0-|-19-0-0-0-0-0-15-0-0-0-0-0-|
|---------------------------|---------------------------|
|---------------------------|---------------------------|
|---------------------------|---------------------------|
|---------------------------|---------------------------|
|---------------------------|---------------------------|

|-20-19-17----------19-17-15----------|---------------------------|
|----------20-19-17----------19-17-15-|-17~-----------------------|
|-------------------------------------|---------------------------|
|-------------------------------------|---------------------------|
|-------------------------------------|---------------------------|
|-------------------------------------|---------------------------|

Riff A lead 1 3/4 times (14 bars), rhythm 2 times
  Lead
|--------------------10---|-10b~------------------|
|-10b----r10----8---------|-----------------------|
|-------------------------|-----------------------|
|-------------------------|-----------------------|
|-------------------------|-----------------------|
|-------------------------|-----------------------|

|--------|--------|--------|--------|--------|--------|--------|--------|
|--------|--------|--------|--------|--------|--------|--------|--------|
|--------|--------|--------|--------|--------|--------|-5------|--------|
|-2------|--------|-2------|--------|-2------|--------|-5------|--------|
|-2------|--------|-2------|--------|-2------|--------|-3---/X-|---X\---|
|-0------|--------|-0------|--------|-0------|--------|-----/X-|---X\---|

|-----------------|-----------------|-----------------|-----------------|
|-----------------|-----------------|-----------------|-----------------|
|-----------------|-----------------|-----------------|-----------------|
|-----------------|-----------------|-----------------|-----------------|
|-2---------------|-----------------|-2---------------|-------------3---|
|-0---0-0-0---0-0-|-0---0-0-0-0-0-0-|-0---0-0-0---0-0-|-0---0-0-0-0-1---|

|-----------------|-----------------|-----------------|-----------------|
|-----------------|-----------------|-----------------|-----------------|
|-----------------|-----------------|-5---------------|-----------------|
|-----------------|-----------------|-5---------------|-----------------|
|-2---------------|-----/5------/4--|-3-----------/X--|--------X\-------|
|-0---0-0-0---0-0-|-0-0-/3--0-0-/2--|-------------/X--|--------X\-------|

|-----------------|-----------------|-----------------|-----------------|
|-----------------|-----------------|-----------------|-----------------|
|-----------------|-----------------|-----------------|-----------------|
|-----------------|-----------------|-----------------|-----------------|
|-2---------------|-----------------|-2---------------|-------------3---|
|-0---0-0-0---0-0-|-0---0-0-0-0-0-0-|-0---0-0-0---0-0-|-0---0-0-0-0-1---|

                                                       (lead on right)
|-----------------|-----------------|-----------------|-----------------|
|-----------------|-----------------|-----------------|-----------------|
|-2---------------|-4---------------|-5---------------|-7---------------|
|-2---------------|-4---------------|-5---------------|-7/4-------------|end rythm
|-0---------------|-2---------------|-3---------------|-5---------------|
|-----------------|-----------------|-----------------|-----------------|

|-------------19----17----|-------------19-17-------|
|-17-19-20-17----20----19-|-17-19-20-17-------20-19-|
|-------------------------|-------------------------|
|-------------------------|-------------------------|
|-------------------------|-------------------------|
|-------------------------|-------------------------|
|
|-------------------------|-------------------------|
|-------------------------|-------------------------|
|-------------------------|-------------------------|
|-9-----------------------|-------------7-----7-----|
|-7-----7--7--7--7--7--7--|-7--7--7--7--5-----5-----|
|-------------------------|-------------------------|

|-------------19----17----|-------------------------|
|-17-19-20-17----20----19-|-20-19-17-16-17~---------|
|-------------------------|-------------------------|
|-------------------------|-------------------------|
|-------------------------|-------------------------|
|-------------------------|-------------------------|
|
|-------------------------|-------------------------|
|-------------------------|-------------------------|
|-------------------------|-------------------------|
|-9-----------------------|-5-----7-----9-----------|
|-7-----7--7--7--7--7--7--|-3-----5-----7-----------|
|-------------------------|-------------------------|

|-------------19----17----|-------------19-17-------|
|-17-19-20-17----20----19-|-17-19-20-17-------20-19-|
|-------------------------|-------------------------|
|-------------------------|-------------------------|
|-------------------------|-------------------------|
|-------------------------|-------------------------|
|
|-------------------------|-------------------------|
|-------------------------|-------------------------|
|-------------------------|-------------------------|
|-9-----------------------|-------------7-----7-----|
|-7-----7--7--7--7--7--7--|-7--7--7--7--5-----5-----|
|-------------------------|-------------------------|

|-------------19----17----|-------------------------|
|-17-19-20-17----20----19-|----20-19-20-17-20-15-17-|
|-------------------------|-17----------------------|
|-------------------------|-------------------------|
|-------------------------|-------------------------|
|-------------------------|-------------------------|
|
|-------------------------|-------------------------|
|-------------------------|-------------------------|
|-------------------------|-5-----------------------|
|-9-----------------------|-5-----------------------|
|-7-----7--7--7--7--7--7--|-3-----------------------|
|-------------------------|-------------------------|

|-------------------------------------|----------17-19-20----------19-20-22-|
|-------------------------------------|-17-19-20----------19-20-22----------|
|----------------------------16-17-19-|-------------------------------------|
|-------------------16-17-19----------|-------------------------------------|
|----------12-14-15-------------------|-------------------------------------|
|-12-14-15----------------------------|-------------------------------------|
|
|-------------------------------------|-------------------------------------|
|-------------------------------------|-------------------------------------|
|-9------------------7----------------|-9------------------7----------------|
|-9------------------7----------------|-9------------------7----------------|
|-7------------------5----------------|-7------------------5----------------|
|-------------------------------------|-------------------------------------|

|-22b---------------------------|----------r22--19----------24-|
|-------------------------------|------------------------------|
|-------------------------------|------------------------------|
|-------------------------------|------------------------------|
|-------------------------------|------------------------------|
|-------------------------------|------------------------------|
|
|-------------------------------|------------------------------|
|-------------------------------|------------------------------|
|-5-----------------------------|------------------------------|
|-5-----------------------------|---------------------------9--|
|-3-----------------------------|---------------------------7--|
|-------------------------------|------------------------------|

|----24--24p22s19-----22--22--22p19s17--|-19--19--19p17s15---17--17--17p15s14--|
|---------------------------------------|--------------------------------------|
|---------------------------------------|--------------------------------------|
|---------------------------------------|--------------------------------------|
|---------------------------------------|--------------------------------------|
|---------------------------------------|--------------------------------------|

|-15--15--15p14s12---14---14---14---12--|--------------------------------------|
|---------------------------------------|-15--b------r15----------------/17----|
|---------------------------------------|--------------------------------------|
|---------------------------------------|--------------------------------------|
|---------------------------------------|--------------------------------------|
|---------------------------------------|--------------------------------------|

|-19--17--15----------17--15-------|-17---15---------------------17-19-20-|
|-------------17--19----------17---|----------19---15---17-19-20----------|
|----------------------------------|--------------------------------------|
|----------------------------------|--------------------------------------|
|----------------------------------|--------------------------------------|
|----------------------------------|--------------------------------------|

|-22--20--19----------20--19-------|--------------------------------------|
|-------------20--22----------20---|-22b~~~~---------\/--\/---------------|
|----------------------------------|--------------------------------------|
|----------------------------------|--------------------------------------|
|----------------------------------|--------------------------------------|
|----------------------------------|--------------------------------------|

|-15-12-14-15-14-12-17-14-15-17-15-14-|-19-17-15-------------------17-19-20-|
|-------------------------------------|----------19-17-15/17-19-20----------|
|-------------------------------------|-------------------------------------|
|-------------------------------------|-------------------------------------|
|-------------------------------------|-------------------------------------|
|-------------------------------------|-------------------------------------|

|-22-19-20-22-20-19-24-20-22-24-22-20-|-24b--------------24b----------------|
|-------------------------------------|-------------------------------------|
|-------------------------------------|-------------------------------------|
|-------------------------------------|-------------------------------------|
|-------------------------------------|-------------------------------------|
|-------------------------------------|-------------------------------------|

|--------------------------|----------------------------|
|-17-----------------17----|-17------19------17h19p17---|
|--------------------------|----------------------------|
|--------------------------|----------------------------|
|--------------------------|----------------------------|
|--------------------------|----------------------------|

|---------------20--19--17------|-19--17----------17--------------|
|-16------------------------20--|---------20--19------20--19--17--|
|-------------------------------|---------------------------------|
|-------------------------------|---------------------------------|
|-------------------------------|---------------------------------|
|-------------------------------|---------------------------------|

|-------------------------------|----------------------------------|
|-\13-------------------13--15--|-17------15br---------------------|
|-------------------------------|-----------------------------17---|
|-------------------------------|----------------------------------|
|-------------------------------|----------------------------------|
|-------------------------------|----------------------------------|

|----------------14---|-14br-----14-------------|
|------15---17--------|---------------17---15---|
|-16------------------|-------------------------|
|---------------------|-------------------------|
|---------------------|-------------------------|
|---------------------|-------------------------|

Riff B

|-------------------------------------|----------17-19-20----------19-20-22-|
|-------------------------------------|-17-19-20----------19-20-22----------|
|----------------------------16-17-19-|-------------------------------------|
|-------------------16-17-19----------|-------------------------------------|
|----------12-14-15-------------------|-------------------------------------|
|-12-14-15----------------------------|-------------------------------------|
|
|-------------------------------------|-------------------------------------|
|-------------------------------------|-------------------------------------|
|-9------------------7----------------|-9------------------7----------------|
|-9------------------7----------------|-9------------------7----------------|
|-7------------------5----------------|-7------------------5----------------|
|-------------------------------------|-------------------------------------|

|-24-----------------24----19---------|-------------------------------------|
|-------------------------------20----|-17~---------------------------------|
|-------------------------------------|-------------------------------------|
|-------------------------------------|-------------------------------------|
|-------------------------------------|-------------------------------------|
|-------------------------------------|-------------------------------------|
|
|-------------------------------------|-------------------------------------|
|-------------------------------------|-------------------------------------|
|-9-----------------------------------|-------------------------------------|
|-9-------------------2-----2----2----|-2-----------------------------------|
|-7-------------------2-----2----2----|-2-----------------------------------|
|---------------------0-----0----0----|-0-----------------------------------|
00:00 / 00:00
Outros vídeos desta música
Repetir
Outros vídeos desta música
Composição de Alexi Laiho / Kimberly Goss
Colaboração e revisão:
  • jefferson silva
6.412 exibições
    • ½ Tom
    • A
    • Bb
    • B
    • C
    • Db
    • D
    • Eb
    • E
    • F
    • F#
    • G
    • Ab
  • Adicionar à lista

    0 comentários

    Ver todos os comentários

    Conseguiu tocar?

    2 Tocaram 0 Ainda não

    Grave um vídeo tocando Silent Night, Bodom Night e nos envie!

    Entre para oCifra Club PRO

    Tenha acesso a benefícios exclusivos no App e no Site

    • Chega de anúncios

    • Prioridade de compra em lançamentos

    • Mais recursos no app do Afinador

    • Atendimento Prioritário

    • Descontos nos produtos Cifra Club

    • Ajude a produzir mais conteúdo

    00:00 / 00:00

    Cifra Club Pro

    Aproveite o Cifra Club com benefícios exclusivos e sem anúncios
    Cifra Club Pro
    Aproveite o Cifra Club com benefícios exclusivos e sem anúncios
    OK