Cifra Club

Quando o Amor Bate A Porta

Chimarruts

Cifra: Principal (violão e guitarra)
Tom: G
Intro 2x: D7+  G7+  Gm6

E|------7-------------------------------|
B|---10---10-7---7------------7---------|
G|-------------9---9-7------7---9-7-----|
D|------------------------9---------9---|
A|--------------------------------------|
E|--------------------------------------|

E|-------------------7-------7----10-7-----10--------|
B|--10-7-7-7-8-7-10-------10---10------10-----11-10--|
G|---------------------------------------------------|
D|---------------------------------------------------|
A|---------------------------------------------------|
E|---------------------------------------------------|


 D7+                                G7+
Sorria amor, que o melhor ainda está por vir
  Gm6                              D7+
Com muita onda pra quebrar nesse mar
 D7+                                    G7+
Esse mar, com você traz sentido ao nascer do sol
      Gm6
É o porque nesse reggae pra dizer

 F#m                               G7+
Que não há pecado no exagero, de saber amar
 Gm6                           F#m
Deixa transbordar de mim pra ti
 F#m                                  G7+
Não haverá passado, nem futuro, só presente há
      Gm6                        D7+
Então viva esse agora perto de mim

 D7+                                     G7+
Quando o amor bate à porta, leva embora toda a dor
     Gm6                                          D7+
Faz a gente ficar de boa, a gente só quer ser feliz!
 D7+                                              G7+
Quando o amor bate à porta, feito o verão que não passou
      Gm6                              D7+
Maré mansa, brisa à toa, paz, que eu sempre quis!
 D7+                                            G7+      Gm
Quando o amor bate a porta, eu deixo o tempo dizer (iê, ná ná)

E|------7---------------|
B|---10---10-7---7------|
G|-------------9---9-7--|
D|----------------------|
A|----------------------|
E|----------------------|

(intro)

 F#m                               G7+
Que não há pecado no exagero, de saber amar
 Gm6                           F#m
Deixa transbordar de mim pra ti
 F#m                                  G7+
Não haverá passado, nem futuro, só presente há
      Gm6                        D7+
Então viva esse agora perto de mim

D7+                                       G7+
Quando o amor bate à porta, e leva embora toda a dor
     Gm6                                          D7+
Faz a gente ficar de boa, a gente só quer ser feliz!
 D7+                                              G7+
Quando o amor bate à porta, feito o verão que não passou
      Gm6                              D7+
Maré mansa, brisa à toa, paz, o que eu sempre quis!
D7+                                       G7+
Quando o amor bate à porta, e leva embora toda a dor
     Gm6                                          D7+
Faz a gente ficar de boa, a gente só quer ser feliz!
D7+                                            G7+      Gm6
Quando o amor bate a porta, eu deixo o tempo dizer (iê, ná ná)

(intro)

E|------7-------------------------------|
B|---10---10-7---7------------7---------|
G|-------------9---9-7------7---9-7-----|
D|------------------------9---------9---|
A|--------------------------------------|
E|--------------------------------------|

E|-------------------7-------7----10-7-----10------------|
B|--10-7-7-7-8-7-10-------10---10------10-----11-10-8-7~-|
G|-------------------------------------------------------|
D|-------------------------------------------------------|
A|-------------------------------------------------------|
E|-------------------------------------------------------|
exibições 51.632
Acordes para:

    0 comentários

    mostrar mais comentários

    Conseguiu tocar?

    5 tocaram 0 ainda não

    Grave um vídeo tocando Quando o Amor Bate A Porta e mande pra gente!

    00:00 / 00:00
    outros vídeos desta música
    repetir qualidade Automático
    Outros vídeos desta música
    00:00 / 00:00
    Automático
    OK