Se For Embora

Chimarruts

Composição: Sander Fróis
Intro:

G|----------------------------------------------------------------|
D|-------------555---7--7---------------------------03-3-3--------| 
A|-----13--35--------------8--5-----1-11-1-11----1---------3------| 
E|-1--1---3------------------------1-1----------1-1---------------|

"Sim, já passei por tudo nesta vida"
G|-----------------------------|
D|-----------------------------|
A|---1-3-3-1-3----111----111---|
E|-1------------1------1-------|

"Se a vida veio lhe chamar"
G|-----------------------------|
D|-----------------------------|
A|-----------------------------|
E|-058--058--036--036----------|

"Eu preciso te falar..."
G|-----------------------------|
D|-----------------------------|
A|--------------------3--------|
E|-058--058--036--036----------|

(Repete)
Página 1 / 1

Letras e título
Acordes e artista

resetar configurações
OK