Evidências

Chitãozinho & Xororó

Composição de: Jose Augusto / Paulo Sérgio Valle
tom: D
Parte I do Refrão

E|-2-2-2-2--3-2-0---2--2-2-2-2-0---0-0-0-0----|
B|----------------3---------3---3-------------|
G|--------------------------------------------|
D|--------------------------------------------|
A|--------------------------------------------|
E|--------------------------------------------|

E|-2-0----0-0-0-0--2-0------------------------|
B|----3-1--------------3-0-3-0-3-0-3-0-3-0-3-0|
G|--------------------------------------------|
D|--------------------------------------------|
A|--------------------------------------------|
E|--------------------------------------------|

E|-2-0-2-3-2-3-0---------------- -------------|
B|--------------------------------------------|
G|--------------------------------------------|
D|--------------------------------------------|
A|--------------------------------------------|
E|--------------------------------------------|

Parte II do Refrão

E|-2-2-2-2--3-2-0---2--2-2-2-2-0---0-0-0-0----|
B|----------------3---------3---3-------------|
G|--------------------------------------------|
D|--------------------------------------------|
A|--------------------------------------------|
E|--------------------------------------------|

E|-2-0----0-0-0-0--2-0------------------------|
B|----3-1--------------3-0-3-0-3-0-3-0-3-0-3-0|
G|--------------------------------------------|
D|--------------------------------------------|
A|--------------------------------------------|
E|--------------------------------------------|

E|-2-0---3-2-2-0-0-------- ---------0---------|
B|-----------------3-3-2-3----3-2-3---3-3-2-3-|
G|-----2--------------------------------------|
D|--------------------------------------------|
A|--------------------------------------------|
E|--------------------------------------------|

E|-0-----3-2-2-0-0----------------------------|
B|---3--0----------3-3-2-3--------------------|
G|--------------------------------------------|
D|--------------------------------------------|
A|--------------------------------------------|
E|--------------------------------------------|

Página 1 / 1

Letras e título
Acordes e artista

resetar configurações
OK