Cifra Club

Página de Amigos (part. João Bosco e Vinícius)

Chitãozinho & Xororó

Cifra: Principal (violão e guitarra)
tom: Bb (forma dos acordes no tom de A) Capotraste na 1ª casa
[Intro] A9  E  D9  A9  E

[Tab - Solo Intro] 

Parte 1 de 2
E|----------------------------------------------------|
B|-4/6~~-4/6-4-3-0h3----------------------------------|
G|-------------------5~-5/7-7-5h7p5-3~----------------|
D|----------------------------------------------------|
A|----------------------------------------------------|
E|----------------------------------------------------|

Parte 2 de 2
E|----------------------------------------------------|
B|----------------------------------------------------|
G|-----3-5-3-3/7~-8p7-5~------------------------------|
D|-3h5------------------------------------------------|
A|----------------------------------------------------|
E|----------------------------------------------------|

[Primeira Parte] 

A9     
Ela ligou terminando
 E
Tudo entre eu e ela
   D9
E disse que encontrou
          A9  E
Outra pessoa

[Segunda Parte] 

A9
Ela jogou os meus sonhos
E/G#
Todos pela janela
  D9
E me pediu pra entender
             A9  E
Encarar numa boa

[Pré-Refrão] 

A9             
Como se o meu coração
               E
Fosse feito de aço

Pediu pra esquecer os beijos
       D9
E abraços

E pra machucar
                A9   A4
Ainda brincou comigo
A9
Disse em poucas palavras
             E/G#
Por favor, entenda

O seu nome vai ficar na
        D9
Minha agenda
  E           A9    E
Na página de amigos

[Refrão] 

     A9
Como é que eu posso ser
           E
Amigo de alguém que eu tanto amei
    D9
Se ainda existe aqui comigo
     A9            E
Tudo dela e eu não sei
    A9
Não sei o que vou eu fazer
          A7                D9
Pra continuar a minha vida assim
       A9
Se o amor que morreu dentro
 E                A9
Dela ainda vive em mim

[Solo] A9  E/G#  D/F#  A9  E

[Tab - Solo]

Parte 1 de 2
E|----------------------------------------------------|
B|-4/6~~-4/6-4-3-0h3----------------------------------|
G|-------------------5~-5/7-7-5h7p5-3~----------------|
D|----------------------------------------------------|
A|----------------------------------------------------|
E|----------------------------------------------------|

Parte 2 de 2
E|----------------------------------------------------|
B|----------------------------------------------------|
G|-----3-5-3-3/7~-8p7-5~------------------------------|
D|-3h5------------------------------------------------|
A|----------------------------------------------------|
E|----------------------------------------------------|

[Pré-Refrão] 

A9             
Como se o meu coração
               E
Fosse feito de aço

Pediu pra esquecer os beijos
       D9
E abraços

E pra machucar
                A9   A4
Ainda brincou comigo
A9
Disse em poucas palavras
             E/G#
Por favor, entenda

O seu nome vai ficar na
        D9
Minha agenda
  E           A9    E
Na página de amigos

[Refrão] 

     A9
Como é que eu posso ser
           E
Amigo de alguém que eu tanto amei
    D9
Se ainda existe aqui comigo
     A9            E
Tudo dela e eu não sei
    A9
Não sei o que vou eu fazer
          A7                D9
Pra continuar a minha vida assim
       A9
Se o amor que morreu dentro
 E                A9   E
Dela ainda vive em mim

     A9
Como é que eu posso ser
           E
Amigo de alguém que eu tanto amei
    D9
Se ainda existe aqui comigo
     A9            E
Tudo dela e eu não sei
    A9
Não sei o que vou eu fazer
          A7                D9
Pra continuar a minha vida assim
       A9
Se o amor que morreu dentro
 E                A9   D9
Dela ainda vive em mim

      A9
Se o amor que morreu dentro
 E                D9
Dela ainda vive em mim

[Final] Dm  A9

[Tab - Solo Final]

E|----------------------------------------------------|
B|-6/8-8p6-4-4-4/7~~-6/7-7p6-4-4/6~-------------------|
G|----------------------------------------------------|
D|----------------------------------------------------|
A|----------------------------------------------------|
E|----------------------------------------------------|
00:00 / 00:00
Outros vídeos desta música
Repetir
Outros vídeos desta música
Composição de Alexandre / Rick
Colaboração e revisão:
  • Luiz Cleiton
12 exibições
    • ½ Tom
    • A
    • Bb
    • B
    • C
    • Db
    • D
    • Eb
    • E
    • F
    • F#
    • G
    • Ab
  • Adicionar à lista

    0 comentários

    Ver todos os comentários

    Conseguiu tocar?

    0 Tocaram 0 Ainda não

    Grave um vídeo tocando Página de Amigos (part. João Bosco e Vinícius) e nos envie!

    Entre para oCifra Club PRO

    Tenha acesso a benefícios exclusivos no App e no Site

    • Chega de anúncios

    • Prioridade de compra em lançamentos

    • Mais recursos no app do Afinador

    • Atendimento Prioritário

    • Descontos nos produtos Cifra Club

    • Ajude a produzir mais conteúdo

    00:00 / 00:00

    Cifra Club Pro

    Aproveite o Cifra Club com benefícios exclusivos e sem anúncios
    Cifra Club Pro
    Aproveite o Cifra Club com benefícios exclusivos e sem anúncios
    OK