Notificações Amigos pendentes

      Chitãozinho & Xororó

      Se Deus me ouvisse

      145.489 exibições
      Tom: F
      Intro: F/A   Am9  C   D   D7
      
      
      E|-----------8------------------8-----13----|
      B|------10-----------------10---------------|
      G|10---------------9------------------------|
      D|------------------------------------------|
      A|------------------------------------------|
      E|------------------------------------------|
      
      
      E|10---13----8------------------------------|
      B|------------------11-----8----------------|
      G|------------------------------------------|
      D|------------------------------------------|
      A|------------------------------------------|
      E|------------------------------------------|
      
      
      F/A                                    Am9
      Ah! Se Deus me ouvisse e mandasse pra mim
                                        Bb
      Aquela que eu amo e que um dia partiu
                                    C   C7
      Deixando a tristeza junto de mim
      F9                               Am9
      Ah! Voltaria pra mim toda a felicidade
                                   Bb
      Sairia do peito uma dor da saudade
                                      C    C7
      Renascia uma vida a caminho do fim
      Bb           C
      Ah! Eu lhe peço, Senhor
      Am9         Dm/A
      Ah! Traz de volta esse amor
         Db                     Ab
      Senhor, está perto o meu fim
                    Bb                    C   C7
      Eu lhe peço, meu Deus, tenha pena de mim
      
      F/A   Am9  C   D   D7
      
      
      E|----------8---11/10--8------------8-----13/12--10--|
      B|------10-----------------8/10----------------------|
      G|8/10-----------------------------------------------|
      D|---------------------------------------------------|
      A|---------------------------------------------------|
      E|---------------------------------------------------|
      
      
      E|8/10--8--------------------------------------------|
      B|-----------11-------10-----11/10--8----------------|
      G|-----------------10--------------------------------|
      D|---------------------------------------------------|
      A|---------------------------------------------------|
      E|---------------------------------------------------|
      
      
      E|-----------8------------------8-----13----|
      B|------10-----------------10---------------|
      G|10---------------9------------------------|
      D|------------------------------------------|
      A|------------------------------------------|
      E|------------------------------------------|
      
      
      E|10---13----8------------------------------|
      B|------------------11-----8----------------|
      G|------------------------------------------|
      D|------------------------------------------|
      A|------------------------------------------|
      E|------------------------------------------|
      
      
      F/A                                    Am9
      Ah! Se Deus me ouvisse e mandasse pra mim
                                        Bb
      Aquela que eu amo e que um dia partiu
                                    C  C7
      Deixando a tristeza junto de mim
      F/A                               Am9
      Ah! Voltaria pra mim toda a felicidade
                                   Bb
      Sairia do peito uma dor da saudade
                                      C    C7
      Renascia uma vida a caminho do fim
      Bb           C
      Ah! Eu lhe peço, Senhor
      Am9         Dm/A
      Ah! Traz de volta esse amor
         Db                     Ab
      Senhor, está perto o meu fim
                    Bb                      C   C7
      Eu lhe peço, meu Deus, tenha pena de mim
      
      2x:
      F/A             Am9
      Ah   Ah   Ah    Ah
                Bb
      Ah   Ah   Ah
                C
      Ah   Ah   Ah
                F/A
      Ah   Ah   Ah
        Composição: Almir RogérioColaboração e revisão:
        • Christian
        • Ronan
        • diogo

        Comentários 5

        140 .
        • Carlos Carlos: Em 16/12/2015 21:25

          Como vou tocar a musica se Deus me ouvisse de Chitãozinho e Xororó se os acordes da musica não correspondem aos acordes que aparece na te

        • shafer shafer: Em 16/08/2015 20:47

          a música eh em G, pra quem quer fazer essas notas coloca o CAPO na 3ª ksa

        • marciodfg marciodfg: Em 31/05/2015 15:51

          muito ruim, troca de tom bugada.

        • gustavo gustavo : Em 28/12/2014 14:42

          O TOM ORIGINAL É SOL MAIOR GENTE, COM OS ACORDES NA FORMA DE MI

        • matheus matheus: Em 18/01/2014 21:50

          ta meio errada mais da para tocar

        140 cancelar

        conseguiu tocar?

        • •••

        covers

        Grave um vídeo tocando Se Deus me ouvisse e mande pra gente!

        Ex.: http://www.youtube.com/watch?v=0IvSvIwGdwk
        ver covers de outras músicas »
        0:00 / 0:00

        Capítulos

          1 versão de violão dificuldade exibições contribuição e correção
          1 versão de guitarra dificuldade exibições contribuição e correção
          1 versão de cavaco dificuldade exibições contribuição e correção
          1 versão de teclado dificuldade exibições contribuição e correção
          1 versão de Guitar Proformatodownloadscontribuição
          play/pausefechar subir/descer velocidade
          6ª corda E5ª corda A4ª corda D3ª corda G2ª corda B1ª corda E
            acordes
            publicidade
            fechar
            ok