Shambhalla

Choldra

tom: A
Standard E 

intro
|-------------------------------------------
|-------------------------------------------
|-------------------------------------------
|-------------------------------------------
|---------5h2---------5h2-------------------
|---3h2-0-5h2-0-3h2-0-5h2-0-3h2-0-----------

intro pt 2
|-------------------------------------------
|-------------------------------------------
|-------------------------------------------
|---5-4--7-4---5-4--7-4---5-4-2-------------
|---5-4--5-2---5-4--5-2---5-4-2-------------
|---3-2--5-2---3-2--5-2---3-2-0-------------

verso
gtr 1
|-------------------------------------------
|-------------------------------------------
|-------------------------------------------
|-5555555555555555-2222222222222222---------
|-3333333333333333-2222222222222222---------
|-3333333333333333-0000000000000000---------

gtr 2
|-15-14-15-12----15-14-15-------15-14-15----
|-------------------------12-------------15-
|-------------------------------------------
|-------------------------------------------
|-------------------------------------------
|-------------------------------------------

após o verso
|-------------------------------------------
|-------------------------------------------
|-------------------------------------------
|---5-4--7-4---5-4--7-4---5-4-2-------------
|---5-4--5-2---5-4--5-2---5-4-2-------------
|---3-2--5-2---3-2--5-2---3-2-0-------------

verso 2 igual o 1
no segundo verso tem uma variação no fim
gtr1
|-------------------------------------------
|-------------------------------------------
|-------------------------------------------
|--5-5-5-5-55--4-4-4-4-44-------------------
|--3-3-3-3-33--2-2-2-2-22-------------------
|--3-3-3-3-33--2-2-2-2-22-------------------

após o verso
|-------------------------------------------
|-------------------------------------------
|-------------------------------------------
|---5-4--7-4---5-4--7-4---5-4-2-------------
|---5-4--5-2---5-4--5-2---5-4-2-------------
|---3-2--5-2---3-2--5-2---3-2-0-------------

rap da ponte
|-------------------------------------------
|-------------------------------------------
|-------------------------------------------
|-------------------------------------------
|---------5h2---------5h2-------------------
|---3h2-0-5h2-0-3h2-0-5h2-0-3h2-0-----------

verso 3 igual o 2

interludio
gtr 1
|-------------------------------------------
|-------------------------------------------
|-------------------------------------------
|--4-7-5-7-5-4-7-5-7------------------------
|--2-5-3-5-3-2-5-3-5------------------------
|--2-5-3-5-3-2-5-3-5------------------------

gtr 2
|-------------------------------------------
|-------------------------------------------
|---------------------44477755557775555-----2x 
|-------------------------------------------
|-------------------------------------------
|-------------------------------------------

fim
|-------------------------------------------
|-------------------------------------------
|-------------------------------------------
|--4-7-5-7-5-4-7-5-7------------------------
|--2-5-3-5-3-2-5-3-5------------------------
|--2-5-3-5-3-2-5-3-5------------------------
Página 1 / 1

Letras e título
Acordes e artista

resetar configurações
OK