Cifra Club

Aprenda

Billie Jean

Chris Cornell

Cifra: Principal (violão e guitarra)
Tom: G
Primeira Parte:
E|--------------------------|
B|--------------------------|
G|---------0----------------|   (4x)
D|------2-----2-------------|
A|----2----------2----------|
E|-0----------------0-------|
O dedilhado acima acompanha a primeira parte da letra, que segue:

  Em
She was more like a beauty queen from a movie screen
Said don't mind, but what do you mean
         Am
I am the one...

E|---------------------------------------------|
B|----------0~1-------------------1------------|
G|-------2-------2---------------2---2---------|
D|-----2-----------2----------2--------2-------|
A|--0-----------------------0------------------|
E|---------------------------------------------|

  Am                                Em
who will dance on the floor in the round

E|--------------------------|
B|---------0----------------|
G|------0-----0-------------|   (2x)
D|----2----------2----------|
A|--------------------------|
E|-0------------------------|

           Am
She says I am the one who will dance on the floor ...

E|---------------------------------------------|
B|----------0~1-------------------1------------|
G|-------2-------2---------------2---2---------|
D|-----2-----------2----------2--------2-------|
A|--0-----------------------0------------------|
E|---------------------------------------------|

C
... in the round

E|---------0------------------------|
B|-------1---1----------------------|
G|----0--------0--------------------|
D|-----------------------------0----|
A|--3---------------2~3-------------|
E|----------------------------------|

     Em
She said her name was Billie Jean, as she caused a scene
                                                          Am
And every head turned with eyes that dreamed of being the one
                                        Em
Who will dance on the floor ... in the round

Pré-Refrão:
C                            Em
 People always told me be careful what you do
       C                               Em
Don't go around breaking young girls' hearts
 C                       Em
Momma always told me be careful who you love
     C                                              B7
Be careful what you do before the lie becomes the truth

Refrão:
Em       Am      Em
 Billie Jean is not my lover
Em      Am        Em             Am          Bm
 She's just a girl who says that I am the... one
         C      D      Em
But the kid is not my son
         Am       Bm           C      D      Em
She says I am the one,but the kid is not my son

 Segunda Parte:
Em
For forty days and forty nights The law was on her side
                                             Am
Who could stand when she's in demand, Her schemes and plans
                                    Em
Cause we dance on the floor in the round
              Am                                  C
So take my strong advice and remember to always think twice, Do think twice

  Em
She told my baby that we'd danced till three, She looked at me, showed a photo
                                   Am
My baby cried, his eyes were like mine
                                    Em
Cause we dance on the floor in the round

Pré-Refrão:
C                          Em
 People always told me be careful what you do
       C                               Em
Don't go around breaking young girls' hearts
  C                               Em
Then she stood right by me, The smell of sweet perfume
      C                               B7
This happened much too soon When she called me to her room yeah yeah yeah

Refrão:
Em       Am      Em
 Billie Jean is not my lover
  Em          Am  Em              Am          Bm
She's just a girl   who says that I am the... one
         C      D      Em
But the kid is not my son
         Am       Bm            C      D      Em
She says I am the one, but the kid is not my son
                     Am  Bm        C        D              Em
So take my strong advice    and remember to always think twice

Do think twice
Composição de Michael Jackson
Colaboração e revisão:
51.156 exibições
    • ½ Tom
    • A
    • Bb
    • B
    • C
    • Db
    • D
    • Eb
    • E
    • F
    • F#
    • G
    • Ab
  • Adicionar à lista

    0 comentários

    Mostrar mais comentários

    Conseguiu tocar?

    13 Tocaram 0 Ainda não

    Grave um vídeo tocando Billie Jean e mande pra gente!

    00:00 / 00:00
    outros vídeos desta música
    repetir qualidade Automático
    Outros vídeos desta música
    00:00 / 00:00
    Automático

    Cifra Club Pro

    Aproveite o Cifra Club com benefícios exclusivos e sem anúncios
    Cifra Club Pro
    Aproveite o Cifra Club com benefícios exclusivos e sem anúncios
    OK