Cifra Club

Aprenda

You Know My Name

Chris Cornell

Tab de baixo: Principal
Intro
G-------------|
D-------------|
A-2-2---------|
E-----3-3-0-0-|x4

verse
G----------------------------------------------|
D----------------------------------------------|
A-2--2-2--2--2-2--2--2-2----------------5--5-5-|
E-------------------------3--3-3--3-3-3--------|x2

Pre Verse
G-----------------|
D-----------------|
A-----------2-0---|
E-3--3-2--2-----3-|x2

G------------------------|
D------------------------|
A------------------------|
E-2-2-2-2-2-2-2-2-2-2-2/-|


Chorus

G----------------------------------------------------------|
D----------------------------------------------------------|
A-2-2-2-2-2-2----------------------------------------------|
E-------------3-3-3-3-3-3-3-3--0-0-0-0-0-0-0-0-0-0-0-0-0-0-|

G------------------------------------------------------------|
D------------------------------------------------------------|
A-2-2-2-2-2-2-----------------------------/7-7-7-7-7-7-7-7-7-|
E-------------3-3-3-3-3-3-3-3--0-0-0-0-0-0-------------------|x2

Chorus outro
G----------------------------------------------------------|
D----------------------------------------------------------|
A--------------------------------------------------7/--7/--|
E-3-3-3-3-3-3-3-3-3-3-3-3-3-3-2-2-2-2-2-2-2-2-2------------|

G-------------|
D-------------|
A-2-2---------|
E-----3-3-0-0-|

Verse x2

Pre-chorus x2

Bridge
G------------------------------------------------------------|
D------------------------------------------------------------|
A------------------------------------------------------------|
E-3-3-3-3-3-3-3-3-3-3-3-3-3-3-3-0-0-0-0-0-0-0-0-0-0-0-0-0-0--|x2

G-------------------|
D-------------------|
A-7/----------------|
E-------------------|

Chorusx3

G---------------------------------------------------------------|
D---------------------------------------------------------------|
A------------------------------------------------7-7-7-7-7-7-7--|
E-3-3-3-3-3-3-3-3-3-3-3-3-3-3-2-2-2-2-2-2-2-2-2-----------------|

Outro
G------------------------------------------------------------|
D------------------------------------------------------------|
A-2-2-2-2-2-2-----------------------------/7-7-7-7-7-7-7-7-7-|
E-------------3-3-3-3-3-3-3-3--0-0-0-0-0-0-------------------|x3

G-------------|
D-------------|
A-2-2---------|
E-----3-3-0-0-|
Composição de Chris Cornell
1.062 exibições

0 comentários

Mostrar mais comentários

Conseguiu tocar?

0 Tocaram 0 Ainda não

Grave um vídeo tocando You Know My Name e mande pra gente!

00:00 / 00:00
outros vídeos desta música
repetir qualidade Automático
Outros vídeos desta música
00:00 / 00:00
Automático

Cifra Club Pro

Aproveite o Cifra Club com benefícios exclusivos e sem anúncios
Cifra Club Pro
Aproveite o Cifra Club com benefícios exclusivos e sem anúncios
OK