Cifra Club

Skeleton Kiss

Christian Death

Cifra: Principal (violão e guitarra)
exibições 510
Tom: C
                                ===============
                                 ~~~~~~~~~~~~~

Transcribed by: * John Mc Donagh

Riff A:
e|-----------------------------------------------|
B|-----------------------------------------------|
G|-----------------------------------------------|
D|---3-2---2---------3-2---2---------------------|
A|-0-----3---3-2---0-----3---3-2-----------------|
E|-----------------------------------------------|

Riff B:
e|-----------------------------------------------|
B|-----------------------------------------------|
G|---3-2---2---------3-2---2---------------------|
D|-0-----3---3-2---0-----3---3-2-----------------|
A|-----------------------------------------------|
E|-----------------------------------------------|

The Guitar bit is: Riff A (x2) Riff B (x1) Riff A (x1)
Then it goes into power chords(A-Shape):
A       F       E       C       B

and at one point after doing the above does:
A       C       D       C       B
Note always the C and B at the end are palm muted.

out some more songs...

 AlienSexFiendBabesInToylandBauhausNickCaveChristianDeathConcreteBlondeCreaming
 JesusDeathInJuneDeadCanDance ------------------------------------------ InDust
 JoyDivisionLoveAndRocketsNiN |  -John Mc Donagh-    -Nascent Virion-  | Pixies
 MetallicaMinistryMarionettes |  "I dress my tears in costumes." Rozz  | Smiths
 NosferatuIggySexGangChildren |  * *s  | LeCure
 SisterhoodSistersTonesonTail ------------------------------------------ Siouxi
 CultShadowProjectSlfSonicYouthFieldsOfTheNephilimWhippingBoyRubiconByron Linda
Acordes para:
    Composição: Rozz Williams

    0 comentários

    mostrar mais comentários

    Conseguiu tocar?

    0 tocaram 0 ainda não

    Grave um vídeo tocando Skeleton Kiss e mande pra gente!

    00:00 / 00:00
    outros vídeos desta música
    repetir qualidade Automático
    Outros vídeos desta música
    00:00 / 00:00
    Automático
    OK