Cifra Club

Por siempre tu

Christina Aguilera

Cifra: Versão 2 (violão e guitarra)
tom: Cm
Intro:

E|----------------------|------------------------|
B|-11-11-11-11-9-14-----|------------------------|
G|------------------11--|---10h11---------8h9-11-|
D|----------------------|---------(11)-----------|
A|----------------------|------------------------|
E|----------------------|------------------------|

E|--------------------|
B|--7-11h12-11-11-9-9-|
G|--------------------|
D|--------------------|
A|--------------------|
E|--------------------|

Despues del primer Coro:

E|---------------------------------------------|
B|------------------------------6h7-6----------|
G|-11-10-11-11-11-10-11-8p6-6h8---------8-6-(8)|
D|---------------------------------------------|
A|---------------------------------------------|
E|---------------------------------------------|

Solo:

E|-----------------------------------------------------|
B|-11-11-11-12-10----12--13p12-----------15------------|
G|----------------12-----------12-11-12-----12-11/9| -
D|-----------------------------------------------------|
A|-----------------------------------------------------|
E|-----------------------------------------------------|

E|----12-10-8-7h8-------------10-8-7h8p7-|
B|------------------8-8-7h8-7------------|
G|-11------------------------------------|
D|---------------------------------------|
A|---------------------------------------|
E|---------------------------------------|
Composição de Diane Warren / Rudy Pérez
3 exibições
    • ½ Tom
    • Am
    • Bbm
    • Bm
    • Cm
    • C#m
    • Dm
    • Ebm
    • Em
    • Fm
    • F#m
    • Gm
    • G#m
  • Adicionar à lista

    0 comentários

    Ver todos os comentários

    Conseguiu tocar?

    0 Tocaram 0 Ainda não

    Grave um vídeo tocando Por siempre tu e nos envie!

    00:00 / 00:00
    Outros vídeos desta música
    Repetir Qualidade Automático
    Outros vídeos desta música
    00:00 / 00:00
    Automático

    Cifra Club Pro

    Aproveite o Cifra Club com benefícios exclusivos e sem anúncios
    Cifra Club Pro
    Aproveite o Cifra Club com benefícios exclusivos e sem anúncios
    OK