Notificações Amigos pendentes

      Chuck Berry

      Johnny B. Goode

      17.483 exibições
      Introdução
      
      parte 1
      
      G|--------------5--------5--------------------|
      D|---------5--8-----5--8----------------------|
      A|-------6--------6---------------------------|
      E|-6------------------------------------------|
      
      parte 2
      
      G|--------------------------------------------|
      D|-8-8------8-8-------------------------------|
      A|-----8-10------8-10-------------------------|
      E|--------------------------------------------|
      
      parte 3
      
      G|----7---------5-----------------------------|
      D|-10---------8-------------------------------|
      A|------8-10-----8-10-------------------------|
      E|--------------------------------------------|
      
      parte 4
      
      G|---7-10-----------7-10----------------------|
      D|-8-----------7--8-----------7---------------|
      A|--------8-10-----------8-10-----------------|
      E|--------------------------------------------|
      
      Primeira parte
      
      Deep down in Louisiana, close to New Orleans 
      
      Parte 1
      
      G|----------------------7-10------------------|
      D|-8---------------5--8---------8-8---8-------|
      A|---10-8-10---5-8-----------8------8---------|
      E|-----------6--------------------------------|
      
      Parte 2
      
      G|-------5------------------------------------|
      D|---5-8-----5-8-8-5----8---------------5-----|
      A|-6-------6---------8----10-8-10---5-8-------|
      E|--------------------------------6-----------|
      
      Parte 3
      
      G|----7----------7----------------------------|
      D|-10---------10--------8---------------5-----|
      A|------8-10------8-10----10-8-10---5-8-------|
      E|--------------------------------6-----------|
      
      Refrão 
      
      Go, go, go, Johnny, go.Go, go, Johnny, go...
      
      Parte 1
      
      G|---7-10-------------------------------------|
      D|-8---------8-8-8-------8------8-------------|
      A|--------8---------8-10---10-8---------------|
      E|--------------------------------------------|
      
      Parte 2
      
      G|-----------------5-6-5----------------------|
      D|--------5----5-8-------8------8-8-----------|
      A|---5-8-----6-------------8-10-----10-8-10---|
      E|-6------------------------------------------|
      
      Parte 3
      
      G|-------------7--------7---------------------|
      D|-------8--10-------10-----------------------|
      A|---5-8--------8-10-----8-10-----------------|
      E|-6------------------------------------------|
      
      Parte 4
      
      G|--------------------------------------------|
      D|-8------8-------5---------------------------|
      A|---10-8-----5-8-----------------------------|
      E|----------6---------------------------------|
      
      Segunda parte
      
      He used to carry his guitar in a gunny sack 
      
      Parte 1
      
      G|--------------------------------------------|
      D|-8-8---------5-5--8----------------5-8-8---8|
      A|-----5-5-8-8--------10-8-------5-8-------8--|
      E|-------------------------10--6--------------|
      
      Parte 2
      
      G|-----------5--------------------------------|
      D|-----5-x-8---8-----5-x-8------8-8-----------|
      A|-6-6-----------6-6-------8-10-----10-8-10---|
      E|--------------------------------------------|
      
      Parte 3
      
      G|----------------7---------------------7-----|
      D|-------5--10-10---10----------10-10-----10--|
      A|---5-8---------------8-10-8-----------------|
      E|-6------------------------------------------|
      
      Parte 4
      
      G|--------------------------------------------|
      D|-----------7--8-----------------5-----------|
      A|-8-8--10---------10-8-10---5--8-------------|
      E|-------------------------6------------------|
      
      Refrão 2
      
      Go, go, go, Johnny, go.Go, go, Johnny, go...
      
      Parte 1
      
      G|-----7-10-12-10-----------------7-7-10-10-12|
      D|-8-8------------8---------x-8-8-------------|
      A|------------------10-8-10-------------------|
      E|--------------------------------------------|
      
      Parte 2
      
      G|-------------------5------------------------|
      D|-8------8-----5--8---8---5-8------7---------|
      A|---10-8---6-6----------6-----8-10-----------|
      E|--------------------------------------------|
      
      Parte 3
      
      G|----------------------7---------7-----------|
      D|-8------8-------5--10--------10-------------|
      A|---10-8-----5-8---------8-10------8-10------|
      E|----------6---------------------------------|
      
      Parte 4
      
      G|--------------------------------------------|
      D|-8-8------8-------5-------------------------|
      A|-----10-8-----5-8---------------------------|
      E|------------6-------------------------------|
       
      Terceira parte solo guitarra
      
      Parte 1
         . . .
      G|--------------------------------------------|
      D|----------8-8-8-8---------------------------|
      A|---6----------------------------------------|
      E|-6---6--------------------------------------|
      
      Parte 2
      
      G|--------------------------------------------|
      D|-8--5---5------5-8-5-8-8-5---8-------5------|
      A|------6---6-6--------------8-----5-8--------|
      E|-------------------------------6------------|
      
      Parte 3
      
      G|----7----------7----------------------------|
      D|-10---------10------------------------------|
      A|------8-10------8-8-10-8--------------------|
      E|--------------------------------------------|
      
      Parte 4
                           . . . .
      G|--------------------------------------------|
      D|-8-8---5--8-8---5--8---8-8-8-8-8-8-8-8-8-8--|
      A|-----8--------8------6----------------------|
      E|--------------------------------------------|
      
      parte 5
      
      G|-------------5---------------5--------------|
      D|-----5-5-8-8---8-----5-5-8-8---8------------|
      A|-6-6-------------6-6------------------------|
      E|--------------------------------------------|
      
      Parte 6
      
      G|-----------------------------------7--------|
      D|-8-8---------------5-----7-7-10-10---10-----|
      A|-----10-8-10---5-8---8-8--------------------|
      E|-------------6------------------------------|
      
      Parte 7
      
      G|--------7-----------------------------------|
      D|---7-10---10--8-----------------5-----------|
      A|-8--------------10-8-10-8---5-8-------------|
      E|--------------------------6-----------------|
      
      Quarta parte
      
      His mama told him, some day you will be a man 
      
      Parte 1
      
      G|--------------------------------------------|
      D|-8-5---5-------5-------5--8-8---8-----------|
      A|-----8-----5-8-----5-8--------8-------------|
      E|---------6-------6--------------------------|
      
      Parte 2
      
      G|-------------5---------------5--------------|
      D|-----5---8-5---8-----5---8-5---8--8-8-------|
      A|-6-6---6---------6-6---6-------------10-8-10|
      E|--------------------------------------------|
      
      Parte 3
      
      G|----------------7---------------------7-----|
      D|-------5--10-10---10----------10-10-----10--|
      A|---5-8---------------8-10-8-----------------|
      E|-6------------------------------------------|
      
      Parte 4
      
      G|--------------------------------------------|
      D|-----------7--8-----------------5-----------|
      A|-8-8--10---------10-8-10---5--8-------------|
      E|-------------------------6------------------|
      
      Refrão 3
      
      Go, go, go, Johnny, go.Go, go, Johnny, go...
      
      Parte 1
      
      G|-----7-10-12-10-----------------7-7-10-10-12|
      D|-8-8------------8---------x-8-8-------------|
      A|------------------10-8-10-------------------|
      E|--------------------------------------------|
      
      Parte 2
      
      G|-------------------5------------------------|
      D|-8------8-----5--8---8---5-8------7---------|
      A|---10-8---6-6----------6-----8-10-----------|
      E|--------------------------------------------|
      
      Parte 3
      
      G|----------------------7---------7-----------|
      D|-8------8-------5--10--------10-------------|
      A|---10-8-----5-8---------8-10------8-10------|
      E|----------6---------------------------------|
      
      Parte 4
      
      G|--------------------------------------------|
      D|-8------------------------------------------|
      A|-----10-8-10--------------------------------|
      E|--------------6-6-6-------------------------|
      
        Composição: Chuck BerryColaboração e revisão:
        • Reginaldo

        Comentários 3

        140 .
        140 cancelar

        conseguiu tocar?

        covers

        Grave um vídeo tocando Johnny B. Goode e mande pra gente!

        Ex.: http://www.youtube.com/watch?v=0IvSvIwGdwk
        ver covers de outras músicas »
        0:00 / 0:00
        3 versões de baixo exibições contribuição e correção
        1 versão de bateria exibições contribuição e correção
        1 versão de gaita exibições contribuição e correção
        play/pausefechar subir/descer velocidade
        6ª corda E5ª corda A4ª corda D3ª corda G2ª corda B1ª corda E
          acordes
          transcrição verificada Reginaldo instrutor de baixo
          publicidade
          fechar
          ok