Cifra Club

Quero Conhecer Jesus (O Meu Amado É o Mais Belo)

Cia. Salt

Cifra: Completa (violão e guitarra)
exibições 33.065
Tom: D
[Intro]   C   D    Em   Bm7

           D
E|----------------------
A|----------------------
D|----------------------
G|----7----------------
B|-------7-----7-------
E|----------5------5---

          E
E|----------------------
A|----------------------
D|----------------------
G|----9----------------
B|-------9-----9-------
E|----------7------7---

       F#m   F#m7
E|-----------------------
A|-----------------------
D|-----------------------
G|----11----------------
B|-------10--10--------
E|----------9------12---

          C#m
E|----------------------
A|----------------------
D|----------------------
G|----6----------------
B|-------5-----5-------
E|----------4------4---

                 C                              D
O meu orgulho me tirou do Jardim
                  Em                           G
Tua humildade colocou o jardim em mim
                    C                                        D
E se eu vendesse tudo o que tenho em troca do amor
              Em    G
Eu falharia
    
               C                               D
Pois o amor não se compra, nem se merece
        Em                        G
O amor se ganha, de graça o recebe

        C                          D
Eu quero conhecer Jesus
        Em                    G
Eu quero conhecer Jesus

E ser achado nele

        C                          D
Eu quero conhecer Jesus
         Em                   G
Eu quero conhecer Jesus

E ser achado nele

(  C   D   Em   G  )
(  C   D   Em   G  )

                 C                              D
O meu orgulho me tirou do jardim
                  Em                             G
Tua humildade colocou o jardim em mim
                      C                                        D
E seu eu vendesse tudo o que tenho em troca do amor
            Em   G
Eu falharia

             C                                 D
Pois o amor não se compra, nem se merece
        Em                         G
O amor se ganha, de graça o recebe

           C                           D
E eu quero conhecer Jesus
        Em                    G
Eu quero conhecer Jesus (e ser achado n'Ele)
        C                        D
Eu quero conhecer Jesus
        Em                     G
Eu quero conhecer Jesus

              C           D       Em                    G              D
O meu amado é o mais belo entre milhares e milhares
              C           D       Em                    G              D
O meu amado é o mais belo entre milhares e milhares
              C           D       Em                    G              D
O meu amado é o mais belo entre milhares e milhares

E|-----------------------------------------------------------------------------------------------------
B|-----------------------------------------------------------------------------------------------------
G|-----------------------------------------------------------------------------------------------------
D|-----------------------------------------------------------------------------------------------------
A|----2---4------2---4----2---4------2---4/6---7------6---7---9---6---7---6-----------------
E|-----------------------------------------------------------------------------------------------------

C    D    Em    G
Yeshua
C    D    Em    G
Yeshua
C    D    Em    G
Yeshua
Acordes para:
    Composição: Alessandro Vilas Boas Colaboração e revisão:
    • Lucio Mauro
    • Gabriel Levandoski

    0 comentários

    mostrar mais comentários

    Conseguiu tocar?

    12 tocaram 4 ainda não

    Grave um vídeo tocando Quero Conhecer Jesus (O Meu Amado É o Mais Belo) e mande pra gente!

    00:00 / 00:00
    outros vídeos desta música
    repetir qualidade Automático
    Outros vídeos desta música
    00:00 / 00:00
    Automático
    Capítulos
    • Tocando a música
    • Apresentação / Equipamentos
    • Acordes da introdução
    • Tocando introdução e primeira parte
    • Dedilhado introdução e primeira parte
    • Acordes segunda parte
    • Tocando segunda parte
    • Ritmo da segunda parte
    • Dicas primeira parte (repetição)
    • Tocando primeira parte (repetição)
    • Ritmo da primeira parte (repetição)
    • Acorde segunda parte (repetição)
    • Tocando segunda parte (repetição)
    • Acordes do refrão
    • Tocando refrão
    • Ritmo do refrão
    • Dicas terceira parte
    • Tocando terceira parte
    • Ritmo da terceira parte
    • Dicas finais
    • Tocando final
    • Encerramento
    OK