Cifra Club

Girassol

Cidade Negra

Tab de baixo: Versão 2
Introdução:

G:----------------|----------------|----------------|--------4-4-4-4-|
D:22--2--24-4-----|66--6--64-44----|22--2--24-4-----|66—-6-—6---4-4--|
A:--2---2---------|--6---6-----442-|--2---2---------|--6---6---------|
E:----------------|----------------|----------------|----------------|

Estrofe:

G:----------------|----------------|----------------|------4-4-4-4---|
D:22--2---44--4---|66--6-4-44------|22--2---44--4---|66--6----4-4----|
A:--22------44----|--66------442---|--22------44----|--66------------|
E:----------------|----------------|----------------|----------------|

Coro:

G:----------------|----------------|----------------|----------------|
D:----------------|----------------|55--55--55--55--|----------------|
A:00--00--00--00--|33--33--33--33--|---5---5---5---5|55--55--55--55--|
E:---0---0---0---0|---3---3---3---3|----------------|---5---5---5----|
Composição de Bino Farias / Da Gama / Lazão / Pedro Luis / Toni Garrido
Colaboração e revisão:
  • Mário Júnior
3.945 exibições

0 comentários

Ver todos os comentários
00:00 / 00:00
Outros vídeos desta música
Repetir Qualidade Automático
Outros vídeos desta música
00:00 / 00:00
Automático

Cifra Club Pro

Aproveite o Cifra Club com benefícios exclusivos e sem anúncios
Cifra Club Pro
Aproveite o Cifra Club com benefícios exclusivos e sem anúncios
OK