Cifra Club

Aprenda

Onde você Mora?

Cidade Negra

Tab de baixo: Principal
Introduçao e verso:

  G                  D                  C                 Am
|------------------------------------------------------------------|
|------------------------7-7-----7---7------5-5-----5---5-----2-2--|
|-----5-5-----5---5--5-5-----5-5---5----3-3-----3-3---3---0-0------|
|-3-3-----3-3---3--------------------------------------------------|


|--------------|
|-----2---2----|
|-0-0---0------|
|--------------|



Essa e a parte "voce vai chegar em casa.." 
note q o baixo para no começo da frase. ele toca isso + -  quando
canta o "casa"..

|------------|
|------------|
|-0-0-5-5----|
|------------|


quando ele canta "aonde voce foi morar" entra com isso no final da palavra
"moraaaaaaaaaaaaar"

|--------------------------------------------------|
|-10--10--10-10-9--9--9-9--7--7--7-7--5--5--5-5----|
|--------------------------------------------------|
|--------------------------------------------------|



e aqui esta o 
"eu sei que eu fui embora e agora eu quero voce..."
|------------------------------------------|
|------------------------------------------|
|-7-7-7-7-7-7-7-7-6-6-6-6-6-6-5-5-5-5-5----|
|------------------------------------------|
Composição de Marisa Monte / Nando Reis
Colaboração e revisão:
  • Paulo Castro
17.652 exibições

0 comentários

Ver todos os comentários

Conseguiu tocar?

0 Tocaram 0 Ainda não

Grave um vídeo tocando Onde você Mora? e nos envie!

00:00 / 00:00
Outros vídeos desta música
Repetir Qualidade Automático
Outros vídeos desta música
00:00 / 00:00
Automático

Cifra Club Pro

Aproveite o Cifra Club com benefícios exclusivos e sem anúncios
Cifra Club Pro
Aproveite o Cifra Club com benefícios exclusivos e sem anúncios
OK