Cifra Club

Ponto de Mutação

Cidade Negra

Cifra: Principal
exibições 12.234
Tom: C
Intro: ( C7+  Dm7 )

Solo introdção 2x:
E|-----------------------------------|
B|-----------------------------------|
G|-----------------------------------|
D|--9r7------------7-9---------------|
A|------10-7--7-10-------------------|
E|-----------------------------------|

E|-----------------------------------|
B|-----------------------------------|
G|--10-10-10-9-9---------------------|
D|---------------12-10-10------------|
A|-----------------------------------|
E|-----------------------------------|

 C7+                   Dm7                   F/G
Vai passar , cedo ou  tarde          vai passar 
 C7+                                   Dm7
A euforia da paixão , a febre  da decepção
    F/G
O amargo da contradição
C7+                     Dm7         F/G
Vai passar , cedo ou tarde  vai passar 

F7+       Em7                                 Dm7
Vai chegar ,    cedo ou         tarde vai chegar
                           F7+
No momento em que encontraremos 
 Em7             Dm7
O ponto de mutação

F7+       Em7                                 Dm7
Vai chegar ,    cedo ou         tarde vai chegar
                           F7+
No momento em que encontraremos 
 Em7             Dm7
O ponto de mutação

  C7+
O amor é a razão , o amor é a certeza 
         Dm7
De batalhar com gentileza , saber amar 
                      C7+
É uma nobreza e vencer sem
 Dm7
perder a humildade
                         C7+
A humildade, endurecer sem
                 Dm7
perder a sensibilidade 

Vocalização(C7+   Dm7 )

Solo 2X
E|-----------------------------------|
B|-----------------------------------|
G|--10-10-10-9-9---------------------|
D|---------------12-10-10------------|
A|-----------------------------------|
E|-----------------------------------|

C7+                           Dm7
Vou cantar , cedo ou tarde eu vou cantar 
  C7+
A divina harmonia , vai brilhar felicidade 
      Dm7
Dia e noite , noite e dia , até o fim dos nossos dias 

F7+                        Em7
Vou cantar , vou cantar cedo ou 
           Dm7
tarde vai chegar
F7+
No momento em que encontraremos 
  Em7          Dm7
O ponto de mutação

  Ê yeah ...êê...

Vai chegar ,a a a a...    cedo ou         tarde 
        Dm7
vai chegar
                           F7+
No momento em que encontraremos...
Em7            Dm7
O ponto de mutação 
                            F7+
No momento em que encontraremos
Em7            Dm7
O ponto de mutação

Vocalização ( C7+  Dm7)

Revisão (Gilson B. Feitosa)
Acordes para:
    Composição: Toni GarridoColaboração e revisão:
    • Gilson Feitosa
    • Danilson Barbosa

    0 comentários

      mostrar mais comentários

      Conseguiu tocar?

      0tocaram0ainda não

      Grave um vídeo tocando Ponto de Mutação e mande pra gente!

      00:00 / 00:00
      outros vídeos desta música
      repetirqualidadeautomática
      Outro vídeos desta música
        00:00 / 00:00
        automática
        OK