Cifra Club

Aprenda

7 Slaps Que Vão Te Ajudar a Tocar Qualquer Música

Cifra Club

Tab de baixo: Principal
Groove Slap 01 - Lá menor

Parte 01

   P T   P T   P T   P T   P   T
G|-x-5h7-x-----x-----x-----x------------------|
D|---------5h7--------------------------------|
A|---------------5h7---3h5--------------------|
E|-----------------------------3--------------|

Parte 02

    T   T  P  P2 T T   P2 P1  T
G|------------x--------7--x-------------------|
D|---------7------------------5/7-------------|
A|---------------3-3/5------------------------|
E|--3/5-x-------------------------------------|

    T   T  P  P2 T T   P2 P1  T
G|------------x--------7--x-------------------|
D|---------7------------------5/7-------------|
A|---------------3-3/5------------------------|
E|--3/5-x-------------------------------------|

    T   T  P  P2 T T   P2 P1  T
G|------------x--------7--x-------------------|
D|---------7------------------5/7-------------|
A|---------------3-3/5------------------------|
E|--3/5-x-------------------------------------|

Parte 03

   P2  T   T  P2 P2 P T   P T   P T   P T   P
G|-x----------10-9--x-5h7-x-----x-----x-----x-|
D|--------------------------5h7---------------|
A|-----7/8-x----------------------5h7---3h5---|
E|--------------------------------------------|

    T
G|--------------------------------------------|
D|--------------------------------------------|
A|--------------------------------------------|
E|--3/5---------------------------------------|


Groove Slap 02 - Mi Menor

Parte 01

   T   T    P T    P T    P  T
G|-7h9------x------x------x-------------------|
D|-----7h9----5h7-----------------------------|
A|-------------------5h7----------------------|
E|---------------------------5h7\-------------|

Parte 02 

   T T T    P1 T T  P2  T T
G|------------------7-------------------------|
D|----------x---------------------------------|
A|----------------------x-5h7-----------------|
E|-0-x-2/3-----x-x----------------------------|

   T T T    P1 T T  P2  T T
G|------------------7-------------------------|
D|----------x---------------------------------|
A|----------------------x-5h7-----------------|
E|-0-x-2/3-----x-x----------------------------|

   T T T    P1 T T  P2  T T
G|------------------7-------------------------|
D|----------x---------------------------------|
A|----------------------x-5h7-----------------|
E|-0-x-2/3-----x-x----------------------------|

Parte 03

   T   T   P2 P1  T   T  P2 P1 T   P1
G|---------9--x----------8--x------11\--------|
D|-----------------------------7/8------------|
A|--------------------------------------------|
E|-5/8—x----------5/7-x-----------------------|


Groove slap 03 - Si Menor

Parte 01

   T P1 T   T P1 T  P1 P1   P1
G|------------7-----x-------------------------|
D|---9--7h9-x----9-----7h9--------------------|
A|--------------------------7h9---------------|
E|-7------------------------------------------|

Parte 02

   T  P1 T   T P1 T  P1 T   T
G|-------------6-----x--7h9-------------------|
D|----9--7h9-x----9---------7h9---------------|
A|--------------------------------------------|
E|-5------------------------------------------|

Parte 03

   T  P1 T   T P1 T  P1 T    T
G|-------------7-----x------------------------|
D|----9--7h9-x----9-----7h9-------------------|
A|---------------------------5h7--------------|
E|-3------------------------------------------|

Parte 04

   T P1 P1  T  P1 T   T P1 T
G|-------------7--------x---------------------|
D|---9--7h8-------11--9----7h8----------------|
A|----------9---------------------------------|
E|-2------------------------------------------|

Parte 05
  
   T  P1 P1  T  P1 T T  P1  T
G|--------------7-----------------------------|
D|----9--7h8------------x---------------------|
A|-----------9--------------------------------|
E|-2---------------9-7------6/7---------------|


Groove Slap 04 - Dó Maior

Parte 01

   T    T  P1 T  T    P1 T  P1
G|---------5----------x--------4--------------|
D|--------------------------5--5--------------|
A|-2/3--x-----x--5h7--------------------------|
E|-----------------------3--------------------|

Parte 02

   P2 T    T P1 P2  P1 T    P1  T    P1 P2 +
G|-x------------x-----------0--------7--7-----|
D|-----------7------------------7h10-------10-|
A|------------------x--7h8--------------------|
E|----5/7--x----------------------------------|


Groove Slap 05 - Mi Menor

Parte 01

   T  T  T  P1  T     P2     P2
G|----------x---------12-----9h11~~-----------|
D|-------x------------------------------------|
A|--------------7/10--------------------------|
E|-0--x-------------------x-------------------|

   T    T  P1  P2  T  P2  T   P2
G|-------------x------9-------8---------------|
D|---------10---------------------------------|
A|-----------------7/9------------------------|
E|-5/8-—x-----------------5/7-----------------|

Parte 02

   T  T  T  P1  T     P2     P2
G|----------x---------12-----9h11~~-----------|
D|-------x------------------------------------|
A|--------------7/10--------------------------|
E|-0--x-------------------x-------------------|

   T    T  P1  P2 T    T  P2 T    P2 P2 T
G|-------------x----------x----------x--------|
D|---------10-----7h9--x-----5h7--x-----4h5---|
A|--------------------------------------------|
E|-5/8-—x-------------------------------------|


Groove Slap 06 - Ré Maior

Parte 01

   T    P1 T    P1 T    P1 T    P1
G|------0-------0-------0-------0-------------|
D|-7h9-----5h7-----4h5------------------------|
A|-------------------------7h9----------------|
E|--------------------------------------------|

Parte 02

   T  T  P2 P2 T  T    T  P1  P2  T
G|-------7--x-----------------x---------------|
D|------------------------5-------------------|
A|-5--x---------------------------------------|
E|-------------2--2/3--x----------5-----------|

   T  T  P1 P2 T  T    T  P1  P2 T    P2
G|-------7--x-----------------x-------0-------|
D|------------------------5------5h7----------|
A|-5--x---------------------------------------|
E|-------------2--2/3--x----------------------|

Parte 03

   T T  P2 P2 T  T    T P1 P2 T  T    T P2
G|------7--x---------------x------------7-----|
D|----------------------5---------------------|
A|-5-x----------------------------------------|
E|------------2--2/3--x-------5--5/7--x-------|

   P2 T T    P1 T    P1 T    P1 T    P1
G|-x---------0-------0-------0-------0--------|
D|------7h9-----5h7-----4h5-------------------|
A|------------------------------7h9-----------|
E|----5---------------------------------------|


Groosve Slap 07 - Mi Menor

Parte 01

   T T  P1 P2 P2  T    T P1 P2 P2 T    T P1 P2
G|---------0--x-------------0--x------------0-|
D|------x----------------5----------------7---|
A|--------------------------------------------|
E|-0-x------------2/3--x----------3/5--x------|

   T   +  P1  T  +   P1 T  +  P1 T
G|--------0----------0--------0---------------|
D|-----12--------11--------9------------------|
A|-10---------9---------7--------5h7----------|
E|--------------------------------------------|

Parte 02

   T T  P1 P2 P2  T    T P1 P2 P2 T    T P1 P2
G|---------0--x-------------0--x------------0-|
D|------x----------------5----------------7---|
A|--------------------------------------------|
E|-0-x------------2/3--x----------3/5--x------|

   T T  P2 T T  P2
G|------9-------7-----------------------------|
D|--------------------------------------------|
A|--------------------------------------------|
E|-8-8-----7-7--------------------------------|
Composição de Reginaldo Costa
Colaboração e revisão:
  • Reginaldo Costa
  • Thiago Almeida
1.005 exibições

0 comentários

Mostrar mais comentários

Conseguiu tocar?

0 Tocaram 0 Ainda não

Grave um vídeo tocando 7 Slaps Que Vão Te Ajudar a Tocar Qualquer Música e mande pra gente!

Relacionados

00:00 / 00:00
outros vídeos desta música
repetir qualidade Automático
Outros vídeos desta música
00:00 / 00:00
Automático
Capítulos
  • Apresentação / Equipamentos
  • Dicas iniciais
  • Dicas groove slap 1
  • Groove slap 1 - Parte 1
  • Groove slap 1 - Parte 2
  • Tocando groove slap 1
  • Dicas groove slap 2
  • Groove slap 2 - Parte 1
  • Groove slap 2 - Parte 2
  • Groove slap 2 - Parte 3
  • Tocando groove slap 2
  • Dicas groove slap 3
  • Groove slap 3 - Parte 1
  • Groove slap 3 - Parte 2
  • Groove slap 3 - Parte 3
  • Groove slap 3 - Parte 4
  • Groove slap 3 - Parte 5
  • Tocando groove slap 3
  • Dicas groove slap 4
  • Groove slap 4
  • Tocando groove slap 4
  • Dicas groove slap 5
  • Groove slap 5 - Parte 1
  • Groove slap 5 - Parte 2
  • Tocando groove slap 5
  • Dicas groove slap 6
  • Groove slap 6 - Parte 1
  • Groove slap 6 - Parte 2
  • Groove slap 6 - Parte 3
  • Tocando groove slap 6
  • Dicas groove slap 7
  • Groove slap 7 - Parte 1
  • Groove slap 7 - Parte 2
  • Tocando groove slap 7
  • Encerramento
OK