Cifra Club

Friends (Shorts)

Cifra Club

Tab de baixo: Principal
[Intro]

G|-----6--6p4\2p0-2h4p2------9---9\7\6\4-4/5\4--|
D|--------------------------11--11\9\7\5-5/7\5--|
A|--0--------------------0----------------------|
E|----------------------------------------------|

[Verso]
                                       harm... 
G|---------4-7--6h7p6p4-----------4-4--4-4-4-4--|
D|-----7-7--------------7--7p4-7----------------|
A|--0-------------------------------------------|
E|----------------------------------3-----------|

G|-------4-6s7--6h7p6p4----6s7p6p4-----9--------|
D|-----7----------------7----------7------------|
A|--0-------------------------------------------|
E|-------------------------------------9--------|

[Ponte]
       harm..   harm.....   harm..
G|----------------------------------------------|
D|-----5-5--5---5--5-5--5---5-------------------|
A|----------------------------4-4---------------|
E|--3-----------7-----------5------5------------|

    Harm..    h     harm...    harm......
G|----------------------------------------------|
D|------5-----5---------------------------------|
A|----4-------------4---5-7----5---4----5-------|
E|--3-----3-----2-----3---4------3---3----------|

[Refrão]

G|-----9--9--9--11--9------4-6-7--6s7p6p4-------|
D|-----------0----------------------------------|
A|--0-------------------------------------------|
E|--------------------0-------------------------|

G|-----9--9--9--11--9------4-6-7--6s7p6p4-------|
D|-----------0----------------------------------|
A|--0-------------------------------------------|
E|--------------------0-------------------------|

G|-----9p7---6\4\2--4/6\4-----4-6-7--6s7p6p4----|
D|-----------0----------------------------------|
A|--0-------------------------------------------|
E|------------------------0---------------------|

[Final]

G|-----4--4p2p0--5\4--2--2h4---2----------------|
D|----------------------------------------------|
A|-----------------------------0----------------|
E|--3-------------------------------------------|
00:00 / 00:00
Outros vídeos desta música
Repetir
Outros vídeos desta música
Composição de Samuel Chacon
Colaboração e revisão:
  • Samuel Chacon
57 exibições

0 comentários

Ver todos os comentários

Entre para oCifra Club PRO

Tenha acesso a benefícios exclusivos no App e no Site

  • Chega de anúncios

  • Prioridade de compra em lançamentos

  • Mais recursos no app do Afinador

  • Atendimento Prioritário

  • Descontos nos produtos Cifra Club

  • Ajude a produzir mais conteúdo

00:00 / 00:00

Cifra Club Pro

Aproveite o Cifra Club com benefícios exclusivos e sem anúncios
Cifra Club Pro
Aproveite o Cifra Club com benefícios exclusivos e sem anúncios
OK