Cifra Club

Lick 29

Cifra Club

Cifra: Principal (violão e guitarra)
tom: A
E|-16h17p16-------------------------------------------|
B|----------17----------------------------------------|
G|-------------16\14-13-14p13----13-------------------|
D|----------------------------16----16-14~------------|
A|----------------------------------------------------|
E|----------------------------------------------------|

E|----------------------------------------------------|
B|-16h17p16-------------------------------------------|
G|----------16----------------------------------------|
D|-------------16\14-13-14p13----13-------------------|
A|----------------------------16----16-14~------------|
E|----------------------------------------------------|

E|-14h15p14-------------------------------------------|
B|----------15----------------------------------------|
G|-------------14\12-11-12p11----11-------------------|
D|----------------------------14----14-12~------------|
A|----------------------------------------------------|
E|----------------------------------------------------|

E|----------------------------------------------------|
B|-14h15p14-------------------------------------------|
G|----------14----------------------------------------|
D|-------------14\12-11-12p11----11-------------------|
A|----------------------------14----14-12~------------|
E|----------------------------------------------------|

00:00 / 00:00
Outros vídeos desta música
Repetir
Outros vídeos desta música
Compositor não encontrado.
Colaboração e revisão:
  • Lucas Kappaun
47 exibições
    • ½ Tom
    • A
    • Bb
    • B
    • C
    • Db
    • D
    • Eb
    • E
    • F
    • F#
    • G
    • Ab
  • Adicionar à lista

    0 comentários

    Ver todos os comentários

    Conseguiu tocar?

    0 Tocaram 0 Ainda não

    Grave um vídeo tocando Lick 29 e nos envie!

    Entre para oCifra Club PRO

    Tenha acesso a benefícios exclusivos no App e no Site

    • Chega de anúncios

    • Prioridade de compra em lançamentos

    • Mais recursos no app do Afinador

    • Atendimento Prioritário

    • Descontos nos produtos Cifra Club

    • Ajude a produzir mais conteúdo

    00:00 / 00:00

    Cifra Club Pro

    Aproveite o Cifra Club com benefícios exclusivos e sem anúncios
    Cifra Club Pro
    Aproveite o Cifra Club com benefícios exclusivos e sem anúncios
    OK