Cifra Club

Aprenda

T-Shirt Weather

Circa Waves

Cifra: Principal (violão e guitarra)
Tom: B
[Intro]

E|--------------7-7---7---7-7-7-----------------------7----------------------|
B|-7---9--7--9------9--------------7-7-7-7---9--7--9-------------------------|
G|-----------------------------------------------------8b~~------------------|
D|---------------------------------------------------------------------------|
A|---------------------------------------------------------------------------|
E|---------------------------------------------------------------------------|

B                Abm
She left me and said
Dbm           E
Baby wont you come to bed
B            Abm
But I cannot sleep
              Dbm        E
While the suns awake

B               Abm
The nights been so long
Dbm                     E
You don't get me right, Don't get me wrong
B                     Abm
Now my head tells the tales
             A
I hardly know

E
I remember t shirt weather
B
I remember some days 
Abm
We were singing our lungs out
E
In the backseat together
B
And the seatbelts 
Abm
Were burning our fingers
E
In the t shirt weather
B
I remember sleeping
Abm                   A        B
To the early afternoon

E|--------------7-7---7---7-7-7-----------------------7----------------------|
B|-7---9--7--9------9--------------7-7-7-7---9--7--9-------------------------|
G|-----------------------------------------------------8b~~------------------|
D|---------------------------------------------------------------------------|
A|---------------------------------------------------------------------------|
E|---------------------------------------------------------------------------|

B               Abm
Drinks fly like words
Dbm           E
Across the kitchen trouble stirs
B               Abm
And I'm tongue tied by words
            Dbm           E
I used to know

B               Abm
So we talk til were sick
Dbm           E
17 were far too quick
B               Abm
when my mind plays tricks
            A
I have to go

E
I remember t shirt weather
B
I remember some days 
Abm
We were singing our lungs out
E
In the backseat together
B
And the seatbelts 
Abm
Were burning our fingers
E
In the t shirt weather
B
I remember sleeping
Abm                   A        B
To the early afternoon

E|--------------7-7---7---7-7-7-----------------------7----------------------|
B|-7---9--7--9------9--------------7-7-7-7---9--7--9-------------------------|
G|-----------------------------------------------------8b~~------------------|
D|---------------------------------------------------------------------------|
A|---------------------------------------------------------------------------|
E|---------------------------------------------------------------------------|

It's gunna be ok

( B  Abm  Dbm  B )
( B  Abm  Dbm  B )
( E  B  Dbm  F# )
( E  B  Dbm  F# )

E|--------------7-7---7---7-7-7-----------------------7----------------------|
B|-7---9--7--9------9--------------7-7-7-7---9--7--9-------------------------|
G|-----------------------------------------------------8b~~------------------|
D|---------------------------------------------------------------------------|
A|---------------------------------------------------------------------------|
E|---------------------------------------------------------------------------|

E
I remember t shirt weather
B
I remember some days 
Abm
We were singing our lungs out
E
In the backseat together
B
And the seatbelts 
Abm
Were burning our fingers
E
In the t shirt weather
B                    Abm
In the t shirt weather
E
In the t shirt weather
B                     Abm
Yeah in the t shirt weather
Colaboração e revisão:
  • julia tomeds
180 exibições
    • ½ Tom
    • A
    • Bb
    • B
    • C
    • Db
    • D
    • Eb
    • E
    • F
    • F#
    • G
    • Ab
  • Adicionar à lista

    0 comentários

    Mostrar mais comentários

    Conseguiu tocar?

    0 Tocaram 0 Ainda não

    Grave um vídeo tocando T-Shirt Weather e mande pra gente!

    00:00 / 00:00
    outros vídeos desta música
    repetir qualidade Automático
    Outros vídeos desta música
    00:00 / 00:00
    Automático

    Cifra Club Pro

    Aproveite o Cifra Club com benefícios exclusivos e sem anúncios
    7 dias grátis
    Cifra Club Pro
    Aproveite o Cifra Club com benefícios exclusivos e sem anúncios
    7 dias grátis
    OK