Astros

Ciro Y Los Persas

Composição de: Andrés ciro Martinez
tom: Am
INTRO:    Am  C  G  F       E

E|--------------------|----------------| |
B|--8--8--8--6--6--5--|--8-8-8-6-6-5---| |
G|--------------------|----------------| |  x2
D|--------------------|----------------| |
A|--------------------|----------------| |
E|--------------------|----------------| |

E|----------------------------------|
B|----------------------------------|
G|------567^---567^--567^--5--------|
D|-----------------------------6/7--|
A|----------------------------------|
E|----------------------------------|

E|--------------------|----------------| |
B|--8--8--8--6--6--5--|--8-8-8-6-6-5---| |
G|--------------------|----------------| |  x2
D|--------------------|----------------| |
A|--------------------|----------------| |
E|--------------------|----------------| |

E|-----------------------------------------| |
B|-----------------------------------------| |
G|------567^---567^--567^--5--------5-5----| |
D|-----------------------------6/7------7--| |
A|-----------------------------------------| |
E|-----------------------------------------| |


  Am
Mas de un esclavo vive en sus tierras,
  C
quieren tu sabia cuando te tenga,
  G
mas que tus soles quieren tu espanto,
  F                            E
dale tus penas para su canto.

 Am
y los violentos aun no se sienten,
 C
quizas te azoten cuando te encuentre,
 G
sobre su vientre estas parado,
 F                                   E
que poco el tiempo que te ha tocado.

  Am                         C
Bailare, bailaras, bailara otra vez,
                       G
que los astros te van a ver,
                           F
que un buen trago no viene mal,
                               E
cuando pega la vida con tanta sed.

Bailare, bailaras, bailara otra vez...


INTRO x 1

 Am
Pero las rocas siguen sangrando,
 C
y sus derrotas vos vas pagando,
 G
nadie que entienda ya de tu herida,
 F                             E
solo la noche se hizo tu amiga.

 Am
Y los violentos aun no se sienten,
 C
quizas te azoten cuando te encuentre,
 G
sobre su vientre estas parado,
 F                                  E
que poco el tiempo que te ha tocado.

 Am                         C
Bailare, bailaras, bailara otra vez,
                       G
que los astros te van a ver,
                           F
que un buen trago no viene mal,
                               E
cuando pega la vida con tanta sed.

Bailare, bailaras, bailara otra vez...


Solo en A

 Am (Silencio)                  C
Bailare, bailaras, bailara otra vez,
                       G
que los astros te van a ver,
                           F
que un buen trago no viene mal,
                               E
cuando pega la vida con tanta sed.

Bailare, bailaras, bailara otra vez...




  Am     C    G    F             E
Oh, oh oh oh, oh oh oh, oh oh oh    [x2]


E|----------------------------------------------------------------------|
Página 1 / 1

Letras e título
Acordes e artista

resetar configurações
OK