Cifra Club

To All Of You

Cky

Tab de baixo: Principal
exibições 365
There's really no bass in this song but if you're playing with a band or something 

G-----------------------------------------------------------------|
D-----------------------------------------------------------------|
A-4-4-4-4-4-4-4-4-4-4-4-4-4-4-4-4-2-2-2-2-2-2-2-2-2-2-2-2-2-2-2-2-|
E-----------------------------------------------------------------|

G-----------------------------------------------------------------|
D-----------------------------------------------------------------|
A-0-0-0-0-0-0-0-0-0-0-0-0-0-0-0-0-2-2-2-2-2-2-2-2-2-2-2-2-2-2-2-2-|
E-----------------------------------------------------------------|

G----------------------------------------------------------------|
D----------------------------------------------------------------|
A--------------------------------2-2-2-2-2-2-2-2-2-2-2-2-2-2-2-2-|
E-2-2-2-2-2-2-2-2-2-2-2-2-2-2-2-2--------------------------------|

G-----------------------------------------------------------------|
D-----------------------------------------------------------------|
A-0-0-0-0-0-0-0-0-0-0-0-0-0-0-0-0-2-2-2-2-2-2-2-2-2-2-2-2-2-2-2-2-|
E-----------------------------------------------------------------|

In verse 2 you can add this:

G-------|
D-------|
A-2h4-4-| x8
E-------|

That's basically the whole song. Enjoy. It's super easy.

0 comentários

mostrar mais comentários

Conseguiu tocar?

0 tocaram 0 ainda não

Grave um vídeo tocando To All Of You e mande pra gente!

00:00 / 00:00
outros vídeos desta música
repetir qualidade Automático
Outros vídeos desta música
00:00 / 00:00
Automático
OK