Cifra Club

Tu Não Desistiras

Clamor pelas Nações

Cifra: Principal
exibições 58.171
Tom: G
Intro: Bm G D Em

Dedilhado da Introdução (Violão):

   Bm                   G              D         Em
E|--------------------------------------------------------------|
B|-------2-2h3-2--------------------------------------0---------|
G|-----4---------4---------0-2-4-2------------------0-----------|
D|---4-------------4-----0--------------4-2-0-----2-------------|
A|-2--------------------------------3/5---------2---------------|
E|--------------------3-----------------------0-----------------|

*Continua o dedilhado na 1º parte

Bm                G                   D             Em
Tu não desistiras até que tenhas tudo Meu coração é teu.
Bm                G                   D             Em
Tu não desistiras até que tenhas tudo Meu coração é teu.

2º parte

   Bm                 G                D         Em
E|-----------2---2----------3---3-----------3--------------------|
B|-------2h3---3----------3---3---3-------3----------------0---0-|
G|-----4----------------0---------------2---------------0----0---|
D|---4--------------------------------0---------------2----------|
A|-2------------------------------------------------2------------|
E|--------------------3---------------------------0--------------|


Bm                G                   D             Em
Me põem como um selo em teu coração como um selo em teu
Bm             G              D             Em
braço , pois o amor , é forte como a morte, paixão cruel como um
   Bm                G     D           Em
sepulcro.
Pré refrão

batida 1 e 2 e abacate 4 


E as muitas águas não podem afogar este
    Bm G D Em
amor.

Bm          G            D                 Em
Venha ser o fogo dentro de mim, venha ser a chama em meu coração,
Bm                G       D          Em           Bm G D Em
venha ser o fogo dentro de mim ate que nos tornemos um...
Acordes para:
    Composição: Trazendo a ArcaColaboração e revisão:
    • Willyan Santoos
    • gustavo gabler
    • demer

    0 comentários

      mostrar mais comentários

      Conseguiu tocar?

      9tocaram0ainda não

      Grave um vídeo tocando Tu Não Desistiras e mande pra gente!

      00:00 / 00:00
      outros vídeos desta música
      repetirqualidadeautomática
      Outro vídeos desta música
        00:00 / 00:00
        automática
        OK