Saudade (part. Hungria Hip Hop)

Claudia Leitte

Composição de: Cláudia Leitte
tom: G
[Intro]

   D#m       C#        B9        A#7
E|------------------------------------------|
B|-----4---------2---------2---------3------|
G|---------3---------1---------4---------1--|
D|---4---4-----3---3-----4---4-----3---3----|
A|-6---------4---------2---------1----------|
E|------------------------------------------|

     D#m
Na, na, na, na, na, na
   C#
(Claudia)
     B9  
Na, na, na, na, na, na
A#7
(Hungria)

[Primeira Parte]

   D#m       C#        B9        A#7
E|------------------------------------------|
B|-----4---------2---------2---------3------|
G|---------3---------1---------4---------1--|
D|---4---4-----3---3-----4---4-----3---3----|
A|-6---------4---------2---------1----------|
E|------------------------------------------|

            D#m                     C#
Ouvindo os discos, já bateu em mim saudade
           B9                               A#7
Puxei a gaveta, o abadá surradinho me trouxe   saudade
           D#m                                 C#
Reuni os amigos pra rever as fotos, aí só deu saudade
              B9                                 A#7
Fevereiro chegando, desespero tomando, aí bateu vontade

[Pré-Refrão]

                   G#m                C#9
Tá aí o meu samba reggae rompendo barreiras
         F#             B9
Como foguete subindo ladeira
     G#m
Vem ver
     A#7
Vem ver

[Refrão]

D#m           
    Ooh, ooh, ooh
B9
   Ooh, ooh, ooh
G#m           A#7
    Ooh, ooh, ooh
 
O mundo desembarca em Salvador
D#m           
    Ooh, ooh, ooh
B9
   Ooh, ooh, ooh
G#m           A#7
    Ooh, ooh, ooh

[Segunda Parte]

   D#m       C#        B9        A#7
E|------------------------------------------|
B|-----4---------2---------2---------3------|
G|---------3---------1---------4---------1--|
D|---4---4-----3---3-----4---4-----3---3----|
A|-6---------4---------2---------1----------|
E|------------------------------------------|

         D#m
O samba reggae é graça é benção, é paz
             C#
É pra quem traz a fé no coração
         B9
É só deixar o Carnaval de Salvador
   A#7
Falar além do meu refrão
          D#m
É som de banzo, de mistura
              C#
Vem da pele, da senzala o sal do teu suor
         B9
É se perder pra se encontrar
              A#7
E aprender a dar valor no seu melhor

[Pré-Refrão]

                   G#m                C#9
Tá aí o meu samba reggae rompendo barreiras
         F#             B9
Como foguete subindo ladeira
     G#m
Vem ver
     A#7
Vem ver

[Refrão]

D#m           
    Ooh, ooh, ooh
B9
   Ooh, ooh, ooh
G#m           A#7
    Ooh, ooh, ooh
 
O mundo desembarca em Salvador
D#m           
    Ooh, ooh, ooh
B9
   Ooh, ooh, ooh
G#m           A#7
    Ooh, ooh, ooh

[Ponte]

    D#m  
Minha saudade é blues
   C#
O meu sorriso é soul
       B9
Quando eu soltar o pensamento
         A#7
É pra falar de amor

   D#m
Aquele grito é luz
   C#
A minha voz tem cor
    B9
Eu deixo o samba fazer reggae
       A#7
Pra curar a nossa dor


D#m                             C#
    Eh, eh, eh, eh, eh, eh, eh, eh

Segura o samba reggae aê
B9                             A#7
   Eh, eh, eh, eh, eh, eh, eh, eh

Eu trago o samba reggae pra você

D#m                             C#
    Eh, eh, eh, eh, eh, eh, eh, eh

Segura o samba reggae aê
B9                             A#7
   Eh, eh, eh, eh, eh, eh, eh, eh

Eu trago o samba reggae pra você

[Refrão]

D#m           
    Ooh, ooh, ooh
B9
   Ooh, ooh, ooh
G#m           A#7
    Ooh, ooh, ooh
 
O mundo desembarca em Salvador
D#m           
    Ooh, ooh, ooh
B9
   Ooh, ooh, ooh
G#m           A#7
    Ooh, ooh, ooh

   D#m                 C#
Ouvindo os discos deu saudade
      B9                    A#7
O abadá surradinho me trouxe   saudade
Página 1 / 1

Letras e título
Acordes e artista

resetar configurações
OK