Cifra Club

Aprenda

Noite do Prazer

Claudio Zoli

Cifra: Versão 5 (violão e guitarra)
tom: A
Introd.: ( A  D7+  C#m7  Bm7  D/E )

|---------------------------------------------------------|
|--------7--------------2--------7------------------------|
|-6-7-9----4-2-------2----6-7-9-----4-2-------2-----------|
|--------------4-2-4--4-----------------4-2-4-------------|
|-----------------------------------------------4---------|
|-------------------------------------------------2-------|

|-----------------------------------------7-----------------|
|-------------------5-4-3-2---2-3-2--7-10---10-7------------|
|-6-6-----------------------4--------------------9-4-2-2----|
|-----4-4-7p4---4-7-----------------------------------------|
|-------------7---------------------------------------------|
|-----------------------------------------------------------|

|-----------------------------------------------------------|
|-2-3-2-------2---------------------------------------------|
|-------4-2-4---2-------------------------------------------|
|-----------------------------------------------------------|
|-----------------------------------------------------------|
|-----------------------------------------------------------|


F#m                D7+   C#m7   Bm7   E
A noite vai ser boa
F#m               D7+   C#m7   Bm7   E
De tudo vai rolar
F#m                      D7+
De certo que as pessoas
C#m7         Bm7        E
Querem se conhecer
F#m               D7+
Se olham e se beijam
         C#m7    Bm7   E
Numa festa genial

<--Refrao
A7M             D7+     C#m7    Bm7
Na madrugada a vitrola rolando um blues
    E                               A
Tocando B. B. King sem parar
               D7+          C#m7    Bm7
Sinto por dentro uma força vibrando uma luz
           E       D7+          C#m7    Bm7
A energia que emana de todo prazer
<--

F#m                      D7+   C#m7   Bm7   E
Prazer em estar contigo
F#m                     D7+   C#m7   Bm7   E
Um brinde ao destino
F#m                      D7+   C#m7
Será que o meu signo
          Bm7                E
Tem a ver com o seu?
F#m               D7+
Vem ficar comigo
                    C#m7    Bm7   E
Depois que a festa acabar

REFRÃO
A7M             D7+     C#m7    Bm7
Na madrugada a vitrola rolando um blues
    E                               A
Tocando B. B. King sem parar
               D7+          C#m7    Bm7
Sinto por dentro uma força vibrando uma luz
           E       D7+          C#m7    Bm7
A energia que emana de todo prazer
Composição de Arnaldo Brandao / Cláudio Zoli / Paulo Z Dan
Colaboração e revisão:
  • Pedro Peixoto
10.011 exibições
    • ½ Tom
    • A
    • Bb
    • B
    • C
    • Db
    • D
    • Eb
    • E
    • F
    • F#
    • G
    • Ab
  • Adicionar à lista

    0 comentários

    Ver todos os comentários

    Conseguiu tocar?

    0 Tocaram 0 Ainda não

    Grave um vídeo tocando Noite do Prazer e nos envie!

    00:00 / 00:00
    Outros vídeos desta música
    Repetir Qualidade Automático
    Outros vídeos desta música
    00:00 / 00:00
    Automático

    Cifra Club Pro

    Aproveite o Cifra Club com benefícios exclusivos e sem anúncios
    Cifra Club Pro
    Aproveite o Cifra Club com benefícios exclusivos e sem anúncios
    OK