Cifra Club

Você vai sentir saudades

Cleiton e Camargo

Cifra: Principal (violão e guitarra)
Tom: Db (forma dos acordes no tom de C) Capotraste na 1ª casa
Intro:

   C        G/B       Am             Em           F
E|-3-3-3-3-3h5-3------|------------------------|
B|---------------6-5--|-3h5-5-5-5-5-5h6-5-3----|
G|--------------------|----------------------5-|
D|--------------------|------------------------|
A|--------------------|------------------------|
E|--------------------|------------------------|

           C/E          Dm    F/G
E|-----------------------3-5-1h3--|
B|-----------------3-5-6----------|
G|-2-4-5-2---2-4-5----------------|
D|---------5----------------------|
A|--------------------------------|
E|--------------------------------|

1ª parte
C         G/B        Am           Em          F
  Você pegou no sono    antes de mim de novo
         C           Dm        G
E eu fiquei olhando filmes na tv,
F         C           Dm  F/G        C
  Nem falei o que eu fiz      pra você.
           G/B      Am            Em        F
Tá sempre só na sua    e a minha mente nua
          C             Dm          G
Te conta todos os meus sonhos e ilusões,
F           C        Dm  F/G      C
  Esquece que somos dois     corações.

Refrão 1
        G/B             F           G           C
O dia que eu for embora   você vai sentir saudade (2X)

Refrão 2
             G/B        Am
Você vai sentir saudade
             Em             F
Daquelas que a gente chora.
             C/E        Dm
Você vai sentir saudade
         G             C
No dia que eu for embora. (2X)
G/B                Am   Em                F   C/E                Dm
    Vai sentir saudade,    vai sentir saudade,    vai sentir saudade
         G             C  ( C  G/B  Am )
No dia que eu for embora.

2ª parte
Am
   Você vai sentir minha falta
        D
Pois só eu entendo o seu jeito de ser,
F                   G                         C  ( C  G/B  Am )
  O que não quer dizer que eu tenha que aguentar
     Am
A viver sozinho à dois,
       D
Ficar sempre pra depois,
F                C/E        Dm               F/G
  Você se acostumou a ter amor sem ter que amar,
           C
Por isso amor...

Repete Refrão 1

Solo de passagem:
    F         C            Dm     G           C      ( C  G/B  Am )
E|-5-5-5-7-8-8-5----------------------------------|
B|---------------8-5------------------------------|
G|-------------------7-5-5h7---7h9-7-5-7-9-5h7-5--|
D|---------------------------5--------------------|
A|------------------------------------------------|
E|------------------------------------------------|

Repete 2ª parte

Repete Refrão 1

Refrão 3 (2X)
             G          Am
Você vai sentir saudade
             Em             F
Daquelas que a gente chora.
             C          Dm
Você vai sentir saudade
         G             C
No dia que eu for embora.
G                Am   Em                F    C                Dm
  Vai sentir saudade,    vai sentir saudade,   vai sentir saudade
         G             C  ( C  G/B  F )
No dia que eu for embora.

Solo final:
   F                          C
E|-------------------------------|
B|-------------------------------|
G|----7h9-7-5-7-9-5h7-------5-5--|
D|--5-----------------5-5h7------|
D|-------------------------------|
A|-------------------------------|
E|-------------------------------|
exibições 25.108
Acordes para:
    Colaboração e revisão:
    • Elton Cruz
    • Elton Ramos
    • Renan Cardoso

    0 comentários

    mostrar mais comentários

    Conseguiu tocar?

    1 tocaram 0 ainda não

    Grave um vídeo tocando Você vai sentir saudades e mande pra gente!

    00:00 / 00:00
    outros vídeos desta música
    repetir qualidade Automático
    Outros vídeos desta música
    00:00 / 00:00
    Automático
    OK