Hino da CF 2007

CNBB

Composição de: L.: Roberto L. de Souza M.: Evaristo M. de S. Neto
tom: F
Introdução:

   Dm     Am    C        D        Dm     C     Dm   Bb  A   Bb    A
E|--1--|--0--|--0--|--------2--||--1--|--0--|--1--|--6--5--6-6-6--5-----||
B|--3--|--1--|--1--|------3----||--3--|--1--|--3--|--6--5--6-6-6--5-----||
G|--2--|--2--|--0--|----2------||--2--|--0--|--2--|--7--6--7-7-7--6-----||
D|--0--|-----|-----|--0--------||--0--|-----|--0--|---------------------||
A|-----|--0--|--3--|-----------||-----|--3--|-----|---------------------||
E|-----|-----|-----|-----------||-----|-----|-----|--6--5--6-6-6--5-----||

 |__________Dedilhando as cordas juntas e no D separadamente____________|

 |________Tocar esta parte bem suavemente_________|Esta parte mais forte|



1ª estrofe:

        Dm                                C
Seja o verde o sinal da esperança, na Amazônia, rincão da aliança
       Bb      Gm                A7
Sem os males        que gera a cobiça 
       Dm                         C
Com o Cristo que tudo renova, haveremos de ver terra nova
      Bb      Gm                  A7
Nova terra        onde reina a justiça


Refrão:

       Gm                            Dm
Rios, lagos, florestas e povos, bendizei ao Senhor na canção,
    E            E7      A         Gm                    
Bendizei ao Senhor na canção, é canção que constrói tempos novos
       Dm                             Bb  Gm   A7         Dm
Nossa vida e missão neste chão! Nossa vida e missão neste chão


Pós-Refrão:

O refrão termina em Dm e você o mantém para começar o riff pós refrão que segue abaixo.

   Gm     A7    Dm     Bb A
E|--3--|--5--|--1--|----6-5-||
B|--3--|--5--|--3--|----6-5-||
G|--3--|--6--|--2--|----7-6-||
D|-----|-----|--0--|--------||
A|-----|-----|-----|--------||
E|--3--|--5--|-----|----6-5-||

 |___Fazer ritmo___|Dedilhar|


2ª estrofe:

     Dm                              C
Os apelos de Deus pela vida, Vêm na voz de Jesus que convida
       Bb  Gm         A7
Ao convívio na diversidade
       Dm                              C
Pelo pobre que se há de acolher, a Amazônia vai se converter
       Bb  Gm           A7
Na Planície da fraternidade


Refrão


3ª estrofe:

    Dm                           C
Amazônia, levamos ao mundo, o clamor que se faz tão profundo
        Bb Gm            A7
Por justiça, trabalho e pão,
      Dm                           C
Pela vida que se manifesta, pelos nossos irmãos da floresta
     Bb Gm           A7
Pela paz e evangelização


Refrão


4ª estrofe:
    Dm                               C
Amazônia, Amazônia, este canto nos ajude a enxugar todo pranto
       Bb Gm                A7
Deste solo tão forte e tão terno
         Dm                          C
E que a vida dos mártires seja novo sopro de vida na Igreja
       Bb  Gm                A7
E esperança de um mundo fraterno



Refrão


Final:

      Bb  Gm   A7         Dm
Nossa vida e missão neste chão  (x2)

Dm           Am           C            D
ÔOOooooooooo ÔOOooooooooo ÔOOooooooooo ÔOooo
Página 1 / 1

Letras e título
Acordes e artista

resetar configurações
OK