Enviar cifraEntrar

Dark Side Of Me

Coheed And Cambria

Tab de baixo: Principal
exibições 130
Intro
G|---------------------------------------------------------------------|
D|---------------------------------------------------------------------|
A|-3---------------------------------3---------------------------------|
E|---------4--------6666666666666666----------4-------6666666666666666-|


Verse 1
"In those discouraging days..."
G|---------------------------------------------------------------------|
D|---------------------------------------------------------------------|
A|-3---------------------------------3---------------------------------|
E|---------4--------6666666666666666----------4-------6666666666666666-|

"You safe and unexposed..."
G|-----------------------------------------------------------------------|
D|----5------3-------88---888-55--------5-----5/6\5--------888-----------|
A|-3----3------5----8--888------88\--3----3---------------8---88---------|
E|--------4------666-------------------------4------4--666------6666666--|


Chorus
"I gave my everything, for all the wrong things..."
G|---------------------------------------------------------------------|
D|---------------------------------------------------------------------|
A|----------------------------------3333333333333333-------------------|
E|-1111111111111111-4444444444444444-----------------66666666xxxxx-13\-|

"Oh, this has become hell..."
G|------------------------------------------------------------------------|
D|------------------------------------------------------------------------|
A|-----------------------------------3333-5555-6666-8888------------------|
E|-1111111111111111-4444444444444444---------------------66666666xxxxx13\-|

"Here in the dark side of me..."
G|---------------------------------------------------------------------|
D|---------------------------------------------------------------------|
A|-3---------------------------------3---------------------------------|
E|---------4--------6666666666666666----------4-------666666666----6\--|


Verse 2
"Now in your absence I wade..."
G|-----------------------------------------------------------------------|
D|----5------3-------88---888-55--------5-----5/6\5--------888-----------|
A|-3----3------5----8--888------88\--3----3---------------8---88---------|
E|--------4------666-------------------------4------4--666------6666666--|


Chorus
"I gave my everything..."
G|------------------------------------------------------------------------|
D|------------------------------------------------------------------------|
A|-----------------------------------3333-5555-6666-8888------------------|
E|-1111111111111111-4444444444444444---------------------66666666xxxxx13\-|

"Oh, this has become hell..."
G|--------------------------------------------------------------------------|
D|--------------------------------------------------------------------------|
A|----------------------------------3333-5555-6666-8888-------------6-5-3---|
E|-1111111111111111-4444444444444444--------------------666666666666------3-|


Bridge
"Here in the dark side of me..."
G|---------------------------------------------|
D|-------------------------------5-------------|
A|-----------------1-33333333333---3-6-5-3---3-|
E|-444444444444444-------------------------6---|

"Here in the dark side of me, oh-whoa-oh..."
G|------------------------------------3--------|
D|---------------------------5------3----------|
A|-----------------1-3333333--33-111----3-1----|
E|-444444444444444--------------------------3--|

"(Whoa-oh-oh) Oh, I couldn't give you what you needed..."
G|---------------------------------------------|
D|-------------------------------5---6-5-3-----|
A|---------111-333-555-333333333---3-------6-5-|
E|-44444444------------------------------------|

"...it's all my fault.  Too coward to believe..."
G|---------------------------------------------|
D|---------------------------------------------|
A|-----------------333-555-666-888-6-5---------|
E|-4444444444444444--------------------8-6-----|


Chorus
"I gave my everything..."
G|------------------------------------------------------------------------|
D|------------------------------------------------------------------------|
A|-----------------------------------3333-5555-6666-8888------------------|
E|-1111111111111111-4444444444444444---------------------66666666xxxxx13\-|

"Oh, this has become hell..."
G|--------------------------------------------------------------------------|
D|--------------------------------------------------------------------------|
A|----------------------------------3333-5555-6666-8888-------------6-5-3---|
E|-1111111111111111-4444444444444444--------------------666666666666------3-|


Outro
"Here in the dark side of me"
G|------------------------------------|
D|------------------------------------|
A|-----------------1-3333333333333333-|
E|-444444444444444--------------------|

"Here in the dark side of me"
G|-----------------------------------------|
D|-----------------------------------3-----|
A|---------------------33333333-11111--1---|
E|-4444444444444-6-4-6-------------------3-|

"Oh-oh-oh-oh-oh" (3:33)
G|-------------------------------------|
D|--------------------------------5----|
A|-----------------1-3333333333333-3-6-|
E|-444444444444444---------------------|

(3:40)
G|-------------------------------------------|
D|-------------------------------------------|
A|-----------------1-333-555-666-888-6-5-----|
E|-444444444444444-----------------------8-6-|

(3:47)
G|---------------------------------------|
D|---------------------------------------|
A|-----------------1-3333333333333-6-5---|
E|-444444444444444---------------------6-|

(3:54)
G|---------------------------------------------|
D|---------------------------------------------|
A|-----------------1-333-555-666-888-6-5-------|
E|-444444444444444-----------------------8-6-4-|
  • 1
  • 2
  • 3
  • 4
  • 5
  • 6
  • 7
  • 8
  • 9
  • 10
  • 11
  • 12
    Composição: Coheed And CambriaColaboração e revisão:
    • Gustavo Rodrigues

    0 comentários

      mostrar mais comentários

      Conseguiu tocar?

      0tocaram0ainda não

      Grave um vídeo tocando Dark Side Of Me e mande pra gente!

      00:00 / 00:00
      outros vídeos desta música
      repetirqualidadeautomática
      • automática
      Outro vídeos desta música
        00:00 / 00:00
        automática
        • automática
        1 versão de Tab de baixoexibiçõescontribuições
        fecharplay/pause subir/descer velocidade
        fechar
        OK