Enviar cifraEntrar

Devil In Jersey City

Coheed And Cambria

Tab de baixo: Principal
exibições 164
This song is fairly simple on bass, and I have found that most of the tabs for this song 
wrong, well they are right, just are higher in the octave.. but I am pretty sure this 
is right. X means "dead note".

G---------------------------------|
D---------------------------------|
A---------------------------------|
E-x7--7-7-7-7-7-7-7-7-7-7-7-7-7-7-|

G-----------------------------------------------|
D-----------------------------------------------|
A-----------------------------------------------|
E-x10--10-10-10-10-10-10-10-10-10-10-10-10-10-10|

G--------------------|
D--------------------|
A-10-10-9-9-7-7------|         4 times
E---------------10-10|

G---------------------------------|
D---------------------------------|
A---------------------------------|
E-x7--7-7-7-7-7-7-7-7-7-7-7-7-7-7-|

G-----------------------------------------------|
D-----------------------------------------------|
A-----------------------------------------------|
E-x10--10-10-10-10-10-10-10-10-10-10-10-10-10-10|

G--------------------|
D--------------------|    4 times
A-10-10-9-9-7-7------|
E---------------10-10|

G---------------------------------|
D---------------------------------|
A---------------------------------|
E-x7--7-7-7-7-7-7-7-7-7-7-7-7-7-7-|

G-----------------------------------------------|
D-----------------------------------------------|
A-----------------------------------------------|
E-x10--10-10-10-10-10-10-10-10-10-10-10-10-10-10|

G--------------------|
D--------------------|    4 times
A-10-10-9-9-7-7------|
E---------------10-10|

G---------------------------------|
D---------------------------------|
A---------------------------------|
E-x7--7-7-7-7-7-7-7-7-7-7-7-7-7-7-|

G-----------------------------------------------|
D-----------------------------------------------|
A-----------------------------------------------|
E-x10--10-10-10-10-10-10-10-10-10-10-10-10-10-10|

G--------------------|
D--------------------|    4 times
A-10-10-9-9-7-7------|
E---------------10-10|

Pre Chorus? -        "Lets fire it up..haha, now.."
G------------------------|
D------------------------|
A------------------------| 2 times
E-3h5-5-3h5-5-3h5-5-3h5-5|

Pre Chorus? - if you dont like doing the: (A-0), you can do (E-5)
G-----------------------------| [ on the 4th time,dont hit the (a-0)]
D-----------------------------|
A--------------0--------------|  4 times
E-3--3-3-3-2-3----------------|

Pre Chorus? -        "Lets fire it up.."
G------------------------|
D------------------------|
A------------------------| 2 times
E-3h5-5-3h5-5-3h5-5-3h5-5|

this next part is where I found everybodys tab wrong, he plays what he regularly does 
then he does what claudio does, just look and it will show you..:

Pre Chorus? -
G-----------------------------|
D-----------------------------|
A--------------0--------------|  2 times
E-3--3-3-3-2-3----------------|

G-----------------------------|
D----7-5-4-2-0----------------|
A--5--------------------------|  1 time
E-3---------------------------|

Chorus? -            "When your"
"down on the floor bleeding bastard, you'll be getting home real..
G----------------------------------------------------|
D----------------------------------------------------|
A--2-2-2-2-5-5--2-2-2-2-4-4--0-0-0-0-5-5--0-0-0-0-5-4|
E----------------------------------------------------|

Chorus? -             "soon... and i pray for you... high health.."
G----------------------|
D----------------------|
A----------------------|
E-3--3-3-3-3-3-3-3-3-3-|

Chorus? -            "dont let them scare you.."
G----------------------------------------------------------------|
D----------------------------------------------------------------|
A----------------------------------------------------------------|
E-5-5-5-5-5-5-5-5-5-5-5-5-5-5-5-5-3-3-3-3-3-3-3-3-3-3-3-3-3-3-3-3|

Chorus? -            "When you're"
"down on the floor bleeding bastard, you'll be getting home real..
G----------------------------------------------------|
D----------------------------------------------------|
A--2-2-2-2-5-5--2-2-2-2-4-4--0-0-0-0-5-5--0-0-0-0-5-4|
E----------------------------------------------------|

 Chorus? -             "soon.."
G----------------------|
D----------------------|
A----------------------|
E--3--3-3-3-3-3-3-3-3-3|

       ..:THE SECOND VERSE IS EXACTLY THE SAME AS THE FIRST VERSE:..
Bridge -
G----------------------------|
D----------------------------|
A-2h4-0--0-4-5-7-5-4-5h4-----|
E------------------------5-5-|

Bridge -
G-----------------------------------------------------|
D-----------------------------------------------------|
A---7-------------------------------------------------|  2 times
E-7---7-7-7-7-7-9-5--5-5-5--7-7-7-7-7-7-7-9-5-5-5-5-5-|

Outro thing -
at the end you start playing the part labled as the chorus again..
except you do it four times, and on the fourth one you change and heres the way you play it:
G-----------2-4-0-0---2-4-0-0------|
D----------------------------------|
A--5-5--4-4--------5-5--------4-4--|
E----------------------------------|

 ..There ya go, i'm pretty sure thats it.. if you have any questions feel free to email 
B*
                           good luck!
  • 1
  • 2
  • 3
  • 4
  • 5
  • 6
  • 7
  • 8
  • 9
  • 10
  • 11
  • 12
    Composição: Coheed and Cambria

    0 comentários

      mostrar mais comentários

      Conseguiu tocar?

      0tocaram0ainda não

      Grave um vídeo tocando Devil In Jersey City e mande pra gente!

      00:00 / 00:00
      outros vídeos desta música
      repetirqualidadeautomática
      • automática
      Outro vídeos desta música
        00:00 / 00:00
        automática
        • automática
        Acordes para:violão e guitarra
        dificuldadeexibiçõescontribuições
        1 versão de Tab de baixoexibiçõescontribuições
        2 versões de Guitar Proformatodownloadscontribuição
        fecharplay/pause subir/descer velocidade
        fechar
        OK