Enviar cifraEntrar

Faint Of Hearts Acoustic

Coheed And Cambria

Cifra: Principal
exibições 658
Tom: E
Album:
Tabbed by: choke383
Normal Tuning: ebGDAE



E|--------------------x------------------------------------------------|
B|--------------------x------------------------------------------------|
G|--------------------x---------------------4--------------------------|
D|9-9-9--2/5-5-5-4-p0-x-457-0-0----5-5-5-2/5---4-p0-------------9------|
A|7-0-7---------------x---------0--3-0-3-------------/5p0----710-107---|
E|--------------------x----------------------------------0007-------7--|


E|--------------------x---------------------------------------------|
B|--------------------x---------------------------------------------|
G|--------------------x---------------------------------------------|
D|9-9-9--2/5-5-5-4-p0-x-457-0-0----5-5-5---5------------------------|
A|7-0-7---------------x---------0--3-0-3---3------------------------|
E|--------------------x---------------------------------------------|



0:17

E|--------------------x-------------------------------------------------|
B|--------------------x-------------------------------------------------|
G|--------------------x---------------------4---------------------------|
D|9-9-9--2/5-5-5-4-p0-x-457-0-0----5-5-5-2/5---4-p0---------------------|
A|7-0-7---------------x---------0--3-0-3-------------/5p0----10-0-10-0--|
E|--------------------x----------------------------------00--8--0-8--0--|


E|--------------------x------------------------------------------------|
B|--------------------x------------------------------------------------|
G|--------------------x---------------------4--------------------------|
D|9-9-9--2/5-5-5-4-p0-x-457-0-0----5-5-5-2/5---4-p0-------------9------|
A|7-0-7---------------x---------0--3-0-3-------------/5p0----710-107---|
E|--------------------x----------------------------------0007-------7--|


E|--------------------x-------------------------------------------------|
B|--------------------x-------------------------------------------------|
G|--------------------x---------------------4---------------------------|
D|9-9-9--2/5-5-5-4-p0-x-457-0-0----5-5-5-2/5---4-p0---------------------|
A|7-0-7---------------x---------0--3-0-3-------------/5p0----10-0-10-0--|
E|--------------------x----------------------------------00--8--0-8--0--|x2


0:47

E|-------------------------------------------------------------------|
B|-------------------------------------------------------------------|
G|-------------------------------------------------------------------|
D|--------------------------------5-5-5-5-5-5-5-5-5-5-5-5-5-5-5-5-5--|
A|5-5-5-5-5-5-5-5-2-2-2-2-2-2-2-2-3-3-3-3-3-3-3-3-3-3-3-3-3-3-3-3-3--|
E|3-3-3-3-3-3-3-3-0-0-0-0-0-0-0-0------------------------------------|x3


E|-------------------------------------------------------------------|
B|-------------------------------------------------------------------|
G|-------------------------------------------------------------------|
D|--------------------------------9-9-9-9-9-9-9-9-7-7-7-7-7-7-7-7-5--|
A|7-7-7-7-7-7-7-7-7-7-7-7-7-7-7-7-7-7-7-7-7-7-7-7-5-5-5-5-5-5-5-5-3--|
E|5-5-5-5-5-5-5-5-5-5-5-5-5-5-5-5------------------------------------|



1:20

E|-----------|
B|-----------|
G|-----------|
D|-----------|
A|10\\\\\\0--|
E|8-\\\\\\0--|


E|--------------------x------------------------------------------------|
B|--------------------x------------------------------------------------|
G|--------------------x---------------------4--------------------------|
D|9-9-9--2/5-5-5-4-p0-x-457-0-0----5-5-5-2/5---4-p0-------------9------|
A|7-0-7---------------x---------0--3-0-3-------------/3p0----710-107---|
E|--------------------x----------------------------------0007-------7--|


E|--------------------x-------------------------------------------------|
B|--------------------x-------------------------------------------------|
G|--------------------x---------------------4---------------------------|
D|9-9-9--2/5-5-5-4-p0-x-457-0-0----5-5-5-2/5---4-p0---------------------|
A|7-0-7---------------x---------0--3-0-3-------------/5p0----10-0-10-0--|
E|--------------------x----------------------------------00--8--0-8--0--|


E|--------------------x------------------------------------------------|
B|--------------------x------------------------------------------------|
G|--------------------x---------------------4--------------------------|
D|9-9-9--2/5-5-5-4-p0-x-457-0-0----5-5-5-2/5---4-p0-------------9------|
A|7-0-7---------------x---------0--3-0-3-------------/3p0----710-107---|
E|--------------------x----------------------------------0007-------7--|


E|--------------------x-------------------------------------------------|
B|--------------------x-------------------------------------------------|
G|--------------------x---------------------4---------------------------|
D|9-9-9--2/5-5-5-4-p0-x-457-0-0----5-5-5-2/5---4-p0---------------------|
A|7-0-7---------------x---------0--3-0-3-------------/5p0----10-0-10-0--|
E|--------------------x----------------------------------00--8--0-8--0--|



1:50

E|-------------------------------------------------------------------|
B|-------------------------------------------------------------------|
G|-------------------------------------------------------------------|
D|--------------------------------5-5-5-5-5-5-5-5-5-5-5-5-5-5-5-5-5--|
A|5-5-5-5-5-5-5-5-2-2-2-2-2-2-2-2-3-3-3-3-3-3-3-3-3-3-3-3-3-3-3-3-3--|
E|3-3-3-3-3-3-3-3-0-0-0-0-0-0-0-0------------------------------------|x3


E|-------------------------------------------------------------------|
B|-------------------------------------------------------------------|
G|-------------------------------------------------------------------|
D|--------------------------------9-9-9-9-9-9-9-9-7-7-7-7-7-7-7-7-5--|
A|7-7-7-7-7-7-7-7-7-7-7-7-7-7-7-7-7-7-7-7-7-7-7-7-5-5-5-5-5-5-5-5-3--|
E|5-5-5-5-5-5-5-5-5-5-5-5-5-5-5-5------------------------------------|


E|---------------|
B|---------------|
G|---------------|
D|5-5-5-5-5-5-5--|
A|3-3-3-3-3-3-3--|
E|---------------|



2:23

E|-------------------------------------------------------------|
B|-------------------------------------------------------------|
G|-------------------------------------------------------------|
D|-----5h7-5-0--------5h7-5-0---5--5-5-5-5-5-5--9--9--7--7-----|
A|5-0----------0-5-0----------0-3--3-3-3-3-3-3--7--7--5--5-----|
E|3-0------------3-0-------------------------------------------|x2



2:38

E|-------------------------------------------------------------|
B|-------------------------------------------------------------|
G|-------------------------------------------------------------|
D|-------------------------------------------------------------|
A|7-7-7-7-7-7-7-7-7-7-7-7-7-7-7-9-9-9-9-9-9-9-9-9-9-9-9-9-9-9--|
E|5-5-5-5-5-5-5-5-5-5-5-5-5-5-5-7-7-7-7-7-7-7-7-7-7-7-7-7-7-7--|


E|----------------------------------------------|
B|----------------------------------------------|
G|----------------------------------------------|
D|----------------------------------------------|
A|10-10-10-10-10-10-10-10-10-10-10-10-10-10-10--|
E|8--8--8--8--8--8--8--8--8--8--8--8--8--8--8---|x4



3:12
E|------|
B|------|
G|------|
D|------|
A|9-9---|
E|7-0---|


E|------------------------------------------------------------------|
B|------------------------------------------------------------------|
G|------------------------------------------------------------------|
D|------------5-4----5--4-------------------------------------------|
A|7--7-7-00-0-3-2-5--3--2--2--3-33-3-33-3-33-3-33-3-33-3-33-3-33-3--|
E|5--5-5-00-0-----3--------0--1-11-1-11-1-11-1-11-1-11-1-11-1-11-1--|


E|--------------------------------x---------------------------------|
B|--------------------------------x---------------------------------|
G|--------------------------------x---------------------------------|
D|------------5-4----5--4---------x---------------------------------|
A|7--7-7-00-0-3-2-5--3--2--2--3-3-x--33-3-33-3-33-3-33-3-33-3-33-3--|
E|5--5-5-00-0-----3--------0--1-1-x--11-1-11-1-11-1-11-1-11-1-11-1--|


E|------------------------------------------------------------------|
B|------------------------------------------------------------------|
G|------------------------------------------------------------------|
D|------------5-4----5--4-------------------------------------------|
A|7--7-7-00-0-3-2-5--3--2--2--3-33-3-33-3-33-3-33-3-33-3-33-3-33-3--|
E|5--5-5-00-0-----3--------0--1-11-1-11-1-11-1-11-1-11-1-11-1-11-1--|


E|-------------------------------------------------------------------------------------|
B|-------------------------------------------------------------------------------------|
G|-------------------------------------------------------------------------------------|
D|------------5-4----5--4--------------------------------------------------------------|
A|7--7-7-00-0-3-2-5--3--2--2--3-0-2/5-3-2-----3-0-2/5-3-2-----3-0-2/5-3-2-----3-3-3-3--|
E|5--5-5-00-0-----3--------0--1-0---------5-3-1-0---------5-3-1-0---------5-3-1-1-1-1--|



3:42
guit 1

E|------------------------------------------------------------|
B|----8---10--7-8---------5-----------------------------------|
G|/7----7---------5-----7---7-5-4-5--4-2-4--5-4-2--0-2-4-0----|
D|-------------------5-------------------------------------4--|
A|------------------------------------------------------------|
E|------------------------------------------------------------|


guit 2

E|------------------------------------------------------------|
B|------------------------------------------------------------|
G|-------------------------------------2-0--------------------|
D|--------------5--------------------0------4-2-0-------------|
A|------------5---3--------------------------------4-3-4---1--|
E|--------------------------------3----------------------4----|


E|------------------------------------------------------------|
B|------------------------------------------------------------|
G|----5---7----------------------------2-0--------------------|
D|/5----5-------5--------------------0------4-2-0-------------|
A|------------5---3--------------------------------4-3-4---1--|
E|--------------------------------3----------------------4----|



3:56

E|-----------------------------------------------------------------|
B|-----------------------------------------------------------------|
G|-----------------------------------------------------------------|
D|7-7-7-7-7-7-7-7-7-7-7-7-7-7-7-7-9-9-9-9-9-9-9-9-5-5-5-5-5-5-5-5--|
A|5-5-5-5-5-5-5-5-5-5-5-5-5-5-5-5-7-7-7-7-7-7-7-7-3-3-3-3-3-3-3-3--|
E|-----------------------------------------------------------------|x4



4:28

E|-------------------------------------------------------------------|
B|-------------------------------------------------------------------|
G|-------------------------------------------------------------------|
D|--------------------------------5-5-5-5-5-5-5-5-5-5-5-5-5-5-5-5-5--|
A|5-5-5-5-5-5-5-5-2-2-2-2-2-2-2-2-3-3-3-3-3-3-3-3-3-3-3-3-3-3-3-3-3--|
E|3-3-3-3-3-3-3-3-0-0-0-0-0-0-0-0------------------------------------|x3


E|-----------------------------------------------------------------|
B|-----------------------------------------------------------------|
G|-----------------------------------------------------------------|
D|--------------------------------9-9-9-9-9-9-9-9-7-7-7-7-7-7-7-7--|
A|7-7-7-7-7-7-7-7-7-7-7-7-7-7-7-7-7-7-7-7-7-7-7-7-5-5-5-5-5-5-5-5--|
E|5-5-5-5-5-5-5-5-5-5-5-5-5-5-5-5----------------------------------|


E|---------------------------------|
B|---------------------------------|
G|---------------------------------|
D|5-5-5-5-5-5-5-5-5-5-5-5-5--------|
A|3-3-3-3-3-3-3-3-3-3-3-3-3-0-3-0--|
E|--------------------------0-1-0--|


E|-------------------------------------------------------------------|
B|-------------------------------------------------------------------|
G|-------------------------------------------------------------------|
D|--------------------------------5-5-5-5-5-5-5-5-5-5-5-5-5-5-5-5-5--|
A|5-5-5-5-5-5-5-5-2-2-2-2-2-2-2-2-3-3-3-3-3-3-3-3-3-3-3-3-3-3-3-3-3--|
E|3-3-3-3-3-3-3-3-0-0-0-0-0-0-0-0------------------------------------|x3


E|-------------------------------------------------------------------|
B|-------------------------------------------------------------------|
G|-------------------------------------------------------------------|
D|--------------------------------9-9-9-9-9-9-9-9-7-7-7-7-7-7-7-7-5--|
A|7-7-7-7-7-7-7-7-7-7-7-7-7-7-7-7-7-7-7-7-7-7-7-7-5-5-5-5-5-5-5-5-3--|
E|5-5-5-5-5-5-5-5-5-5-5-5-5-5-5-5------------------------------------|


E|--------------|
B|--------------|
G|--------------|
D|-----2--------|
A|-----2--------|
E|-----0--------|



Any comments, questions or jokes send to *
  • 1
  • 2
  • 3
  • 4
  • 5
  • 6
  • 7
  • 8
  • 9
  • 10
  • 11
  • 12
    Acordes para:

      0 comentários

        mostrar mais comentários

        Conseguiu tocar?

        0tocaram0ainda não

        Grave um vídeo tocando Faint Of Hearts Acoustic e mande pra gente!

        00:00 / 00:00
        outros vídeos desta música
        repetirqualidadeautomática
        • automática
        Outro vídeos desta música
          00:00 / 00:00
          automática
          • automática
          Acordes para:violão e guitarra
          dificuldadeexibiçõescontribuições
          fecharplay/pause subir/descer velocidade
            Acordes para:violão e guitarra
            acordes
            fechar
            OK