Cifra Club

Faint Of Hearts

Coheed And Cambria

Tab de baixo: Principal
exibições 165
Tabbed By : Xcrimson_ghostX
e-mail: *

Tuning: standard

INTRO
G|------------------------04------------|
D|-----555-4--4h5/7-00------4-0-02020---|
A|-707-------5--------303---------------|
E|--------------------------------------|

G|------------------------------|
D|-----555-4--4h5/7-00----------|
A|-707-------5--------303--3~--|
E|------------------------------|

VERSE
G|------------------------04------------|
D|-----555-4--4h5/7-00------4-0-02020---|
A|-707-------5--------303---------------|
E|--------------------------------------|

G|------------------------------|2X
D|-----555-4--4h5/7-00----------|
A|-707-------5--------303--3~~--|
E|------------------------------|

CHORUS    x3
G|----------------------------------||--------------------------------------|1X
D|----------------------------------||--------------------------------------|
A|---------555555553333333333333333-||-----------------7777777755555555/3~--|
E|-33333333-------------------------||-5555555555555555---------------------|

VERSE
G|------------------------04------------|
D|-----555-4--4h5/7-00------4-0-02020---|
A|-707-------5--------303---------------|
E|--------------------------------------|

G|------------------------------|2X
D|-----555-4--4h5/7-00----------|
A|-707-------5--------303--3~ --|
E|------------------------------|

CHORUS         x3
G|----------------------------------||-------------------------------------|1X
D|----------------------------------||-------------------------------------|
A|---------555555553333333333333333-||-----------------7777777755555555/3~-|
E|-33333333-------------------------||-5555555555555555--------------------|

BRIDGE
G|----54-----54----------------------|2X
D|------50-----50--------------------|
A|----------------33333333-7-7-5-5---|
E|-3-3----3-3------------------------|
     
G|----------------------------------------------------|3X
D|----------------------------------------------------|
A|-----------------------------------3333333333333333-|
E|-5555555555555555-7777777777777777------------------|
 
BRIDGE 2
G|------------------|1X G|----------------------------|3X
D|------------------|   D|----------------------------|
A|-2p~~-235-3-2-----|   A|-0-0000000000000-0-235-3-2--|
E|--------------3---|   E|-------------------------3--|
                
BRIDGE 3
G|----------------------------|
D|----------------------------|
A|--0-05320--0-05320-0-05320--|
E|---------3--------3-------3-|


BRIDGE 4
G|----------------------------|----------------------------|
D|-------------54--------54---|-------------54--------54---|
A|-----0-003-33--50--0033--50-|-----5-553-33--50--5533--50-|
E|-3-33------------33---------|-3-33------------33---------|

BRIDGE 5
G|------------------------------------|4X
D|------------------------------------|
A|------------------------------------|
E|-55555555555555557777777733333333---|

CHORUS
G|---------------------------|2X|-----------------------------------|2X
D|---------------------------|  |-----------------------------------|
A|---------3333333333333333--|  |---------555555553333333333333333--|
E|-3~ -0~ -------------------|  |-33333333--------------------------|

G-----------------------------------------------|
D-----------------------------------------------|
A-----------------7~ -55555555-3333333333333333-|
E-5555555555555555------------------------------|

     x2                                     x2
G|------------------------------------| |-----------------------------------|
D|------------------------------------| |-----------------------------------|
A|------------------3333333333333333--| |---------555555553333333333333333--|
E|-33333333-00000000------------------| |-33333333--------------------------|

G|---------------------------------------|
D|---------------------------------------|
A|-----------------7777777755555555-3~~--|
E|-5555555555555555----------------------|

| /  slide up
| \  slide down
| h  hammer-on
| p  pull-off
| ~  vibrato
| +  harmonic
| x  Mute note
===============================================================================
Composição: Coheed and Cambria

0 comentários

    mostrar mais comentários

    Conseguiu tocar?

    0tocaram0ainda não

    Grave um vídeo tocando Faint Of Hearts e mande pra gente!

    00:00 / 00:00
    outros vídeos desta música
    repetirqualidadeautomática
    Outro vídeos desta música
      00:00 / 00:00
      automática
      OK