Cifra Club

Gravemarkers And Gunslingers Intro

Coheed And Cambria

Tab de baixo: Principal
exibições 249
awesome tunes, if you don't have this album then you need to get it. don't have the 
just yet, but here the intro and verse and from what i can tell also played throught the 
enjoy

intro:

g|---------------------------------------------------------|
d|---------------------------------------------------------|
a|3-55-55-------3-5-8-5--------3-55-55---------------------|
D|----------------------555-33--------------55-33-88-77----| x1

first solo/verse:

g|-----------3h5-3-----------------------|
d|--------3h5-----5-3--------------------|
a|3-55-55--------------5--3-5-8-5--------|
D|--------------------------------555-33-|
(continued)
g|-----------3h5-3-----------------------|
d|--------3h5-----5-3--------------------|
a|3-55-55--------------------------------|
D|--------------------55-33-88-77--------|

0 comentários

    mostrar mais comentários

    Conseguiu tocar?

    0tocaram0ainda não

    Grave um vídeo tocando Gravemarkers And Gunslingers Intro e mande pra gente!

    00:00 / 00:00
    outros vídeos desta música
    repetirqualidadeAutomático
    Outro vídeos desta música
      00:00 / 00:00
      OK