Cifra Club

Hearshot Kid Disaster

Coheed And Cambria

Tab de baixo: Principal
exibições 141

Gtr I (D A D G) - 'elec.'

 Intro
  Moderately Fast Q=108
 4/4
  Gtr I
  Wx3          Q  S  E. S E S S S S S
|------------|------------------------|
|------------|------------------------|
|------------|------------------------|
|------------|------10--8---0-5-5-5-5-|


  Faster Q=114
  E S E  E. S E S S S S S
|-------------------------|
|-------------------------|
|-7-7---------------------|
|-------10--8---0-5-5-5-5-|


  S S S E  E. S E S S S S S   E S E  E. S E S S S S S
|---------------------------|-------------------------|
|---------------------------|-------------------------|
|-7-7-7---------------------|-7-7---------------------|
|---------10--8---0-5-5-5-5-|-------10--8---0-5-5-5-5-|


  S S S E  E. S E S S S S S   S S S S S  E. E S S S S S S
|---------------------------|-----------------------------|
|---------------------------|-----------------------------|
|-7-7-7-----------------0-0-|-7-7-7-7-7-------------------|
|---------10--8---0-5-5-----|-----------10--8-0-0-5-5-5-5-|


  S S S S S  E. E S S S S S S
|------------------------------|
|------------------------------|
|-7-7-7-7-7--------------------|
|-----------10--8-0-0-5-5-5-5--|


  S S S S S  E. E S S S S S S   S S S S S  E. S  Q..
|-----------------------------|------------------------||
|-----------------------------|------------------------||
|-7-7-7-7-7-------------------|-7-7-7-7-7--------------||
|-----------10--8-0-0-5-5-5-5-|-----------10--8\-------||


 Pre-Verse
  Slower Q=82
  S S S E. S S S E.  S E.   S S S E. S S S S S S S E.
|-------------------------|---------------------------|
|-5-5-5----5-5-5----------|---------------------------|
|-------------------12-0--|------------------------5\-|
|-------------------------|-4-4-4----4-4-4-4-4-4-4----|


  S S S E. S S S E.  S E.   S S S E. S S S Q   E  S
|-------------------------|-------------------(0)---||
|-5-5-5----5-5-5----------|-------------------(0)---||
|-------------------12-0--|-------------------------||
|-------------------------|-0-0-0----0-0-0----------||


   Verse
    S S S E. S S S E. S E.   S S S E. S S S E.  E  +S   S  4x
||-------------------------|-------------------------------||
||o------------------------|-0-4-0----0-4-0-----0--(0)----o||
||o------------------------|-------------------14-(14)\---o||
||--5-5-5----5-5-5----5-7\-|-------------------12-(12)\-0--||


   Verse Part 2
    S S S S S S S S S S S S S S S S   S S S E. S S S E.  E  +S   S   4x
||----------------------------------|--------------------------------||
||o---------------------------------|-0-4-0----0-4-0-----0--(0)-----o||
||o---------------------------------|-------------------14-(14)\----o||
||--5-5-5-5-5-5-5-5-5-5-5-5-5-7-7-0-|-------------------12-(12)\-0---||


 Pre-Chorus
  $
  S S E Q  Q  Q    Q  Q  H      S S E S S E S S E S S E
|----------------|------------|-------------------------|
|----------------|------------|-------------------------|
|-2-2---2--2--2--|-5--5-------|-------------------------|
|----------------|-0--0--0----|-5-5---5-5---5-5---5-5---|


  S S E S S E. S S E S E    S S S S E S S s s S s S S S S
|-------------------------|-------------------------------|
|--------------------2-2\-|---------4-------------4-------|
|-------------------------|-2-2-2-2---2---2-2---2---2-4h5-|
|-4-4---4-4----2-2--------|-------------------------------|


  S S S S S e S S s S S S S S S
|-------------------------------|
|-------------------------------|
|-5-5-5-5-4-4-4-7-7---7-4-4-4-5-|
|-------------------------------|


                                                       To Coda
  S S S S S S e S e S S S S S   S S S S S S S S S S S S S S S S
|-----------------------------|---------------------------------||
|-----------------------------|---------------------------------||
|---------5-5---------5-5-----|-------------------4-------7-7-7-||
|-5-5-5-5-----5-5-5-5-----5-5-|-4-4-4-4-4-4-4-4-4---4-0-0-------||


 Chorus
  S S S S S S S S S S S S S S S S   S S S S S S S S S S S S S S S S
|---------------------------------|---------------------------------|
|---------4---------------4-------|---------7---------------7-------|
|-2-2-2-2---2-2-2-2-2-2-2---2-2-2-|-5-5-5-5---5-5-5-5-5-5-5---5-0-5-|
|---------------------------------|---------------------------------|


  S S S S S S S S S S S S S S S S   S S S S S S S S S S S S S S S S
|---------------------------------|---------------------------------|
|---------------------------------|---------------------------------|
|---------5---------------5-------|---------------------7-----7-----|
|-5-5-5-5---5-5-5-5-5-5-5---5-5-5-|-0-0-0-0-0-5-4-0-5-7---x-x---7-5-|


  S S S S S S S S S S S S S S S S   S S S S S S S S S S S S S S S S
|---------------------------------|---------------------------------|
|---------4---------------4-------|---------7---------------7-------|
|-2-2-2-2---2-2-2-2-2-2-2---2-2-2-|-5-5-5-5---5-5-5-5-5-5-5---5-0-5-|
|---------------------------------|---------------------------------|


  S S S S S S S S S S S S S S S S   S S S S S S S S S Q..
|---------------------------------|--------------------------||
|---------------------------------|--------------------------||
|---------5---------------5-------|---------------7----------||
|-5-5-5-5---5-5-5-5-5-5-5---5-5-5-|-4-4-4-4-4-4-5---7--------||


   Verse 2
                                              D.S. al Coda
    S S S E. S S S E. S E.   S S S E. S S S E.  E  +S   S   4x
||-------------------------|--------------------------------||
||o------------------------|-0-4-0----0-4-0-----0--(0)-----o||
||o------------------------|-------------------14-(14)\----o||
||--5-5-5----5-5-5----5-7\-|-------------------12-(12)\-0---||


   Chorus 2
    &
    S S S S S S S S S S S S S S S S   S S S S S S S S S S S S S S S S
||----------------------------------|---------------------------------|
||o---------4---------------4-------|---------7---------------7-------|
||o-2-2-2-2---2-2-2-2-2-2-2---2-2-2-|-5-5-5-5---5-5-5-5-5-5-5---5-0-5-|
||----------------------------------|---------------------------------|


  S S S S S S S S S S S S S S S S   S S S S S S S S S S S S S S S S
|---------------------------------|----------------------------------||
|---------------------------------|---------------------------------o||
|---------5---------------5-------|---------------------7-----7-----o||
|-5-5-5-5---5-5-5-5-5-5-5---5-5-5-|-0-0-0-0-0-5-4-0-5-7---x-x---7-5--||


 Breakdown
  W          +W           +W           +W
|----------|------------|------------|--------|
|----------|------------|------------|--------|
|----------|------------|------------|--------|
|-0--------|-(0)--------|-(0)--------|-(0)----|


  S S  S  S E S S S S E S S E    S  S  S  S E  S  S  S  S E  S  S  S S
|-----------------------------|----------------------------------------|
|-------------5-5-4-0---------|----------------------------------------|
|-----------------------0-0---|--------------------------------------0-|
|-5h7-12h14-------------------|-12-12-12-11---14-14-12-11---12-12-12---|


  Q  Q  Q   Q     Q  Q  Q  e  E
|---------------|---------------|
|---------------|---------------|
|---------------|---------------|
|-5--7--9--12\--|-4--5--7--9-\0-|


  S S  S  S E S S S S E S S E   S S S S E S S S S E S S S S
|-----------------------------|-----------------------------|
|-------------5-5-4-0---------|-----------------------------|
|-----------------------0-0---|-5-5-5-4---7-7-5-4---5-5-5-0-|
|-5h7-12h14-------------------|-----------------------------|


  E S S E S S E S  S  Q     Q  Q  Q  e  E
|-------------------------|---------------|
|-------------------------|---------------|
|---5h7---7h9---9h10------|---------------|
|-5-----7-----9------12\--|-4--5--7--9-\0-|


  S S S S E S S S S E S S E   S S S S E S S S S E S S S S
|---------------------------|-----------------------------|
|-----------5-5-4-0---------|-----------------------------|
|-----5h7-------------0-0---|-5-5-5-4---7-7-5-4---5-5-5-0-|
|-5h7-----------------------|-----------------------------|


  Q  Q  Q   Q     Q  Q  Q  E  E
|---------------|---------------||
|---------------|---------------||
|---------------|----------7\---||
|-5--7--9--12\--|-4--5--7-------||


 Outro
 6/8
  S S S S E S S S S E   S S S S E S S S S S S   E E. S S S S S S S
|---------------------|-----------------------|--------------------|
|---------------------|-------------------0---|--------4-----------|
|---------------------|---------------0-4---0-|-2-2--2---2-2-2-2-0-|
|-5-5-5-5---5-5-5-5---|-5-5-5-5---5-5---------|--------------------|


  E E S S E E S S   S S S S E S S S S E   S S S S E S S S S S S
|-----------------|---------------------|-----------------------|
|---4-5p0---4-7p0-|-5-0-------5-0-------|-5-0---------------0---|
|-2-------2-------|-----5---------------|---------------0-4---0-|
|-----------------|-------5-------5-5---|-----5-5---5-5---------|


  S E E S E s S E   E E S S S S S S E   S S S S E S S S S E
|-----------------|-------------------|----------------------|
|---------4---0---|---4-0-5p0-7p0-0-4-|----------------------|
|-2-2-2-2---2---2-|-2-----------------|----------------------|
|-----------------|-------------------|-5-5-5-5---5-5-5-5----|


  S S S S E S S S S S S   E E. S S S S S S S   E E S S E E S S
|-----------------------|--------------------|-----------------|
|-------------------0---|--------4-----------|---4-5p0---4-7p0-|
|---------------0-4---0-|-2-2--2---2-2-2-2-0-|-2-------2-------|
|-5-5-5-5---5-5---------|--------------------|-----------------|


  S S S S E S S S S E   S S S S E S S S S S S
|---------------------|-----------------------|
|-5-0-------5-0-------|-5-0---------------0---|
|-----5---------------|---------------0-4---0-|
|-------5-------5-5---|-----5-5---5-5---------|


  S E E S E s S E   S E e S E S S S S
|-----------------|-------------------|
|---------4---0---|---4-5-5-7-5p4h5p4-|
|-2-2-2-2---2---2-|-2-----------------|
|-----------------|-------------------|


  S S S S S S S S S S S S   S S S S S S S S S S S S
|-------------------------|-------------------------|
|-------------------------|-------------------------|
|-------------------------|-------------4-5-5-5-5-5-|
|-5-5-5-5-5-5-5-5-5-5-5-5-|-4-4-4-4-4-4-------------|


  S S S S S S S S S S S S   S S S S S S S S S S S S
|-------------------------|-------------------------|
|-------------------------|-------------------------|
|-------5-----------5-----|-------5-----------------|
|-5p4p0-----0-5p4p0-----0-|-5p4p0-----0-4h7-5h7-4h7-|


  S S S S S S S S S S S S   S S S S S S S S S S S S
|-------------------------|-------------------------|
|-------------------------|-------------------------|
|-------------5-5---------|-------------------------|
|-5-5-5-5-5-5-----5-5-5-5-|-4-4-4-4-4-4-5-7-7-7-7-7-|


  S S S S S S S S S S S S   S S S S S S S S S S S S
|-------------------------|-------------------------|
|-------------------------|-------------------------|
|-------5-----------5-----|-------5-----------------|
|-5p4p0-----0-5p4p0-----0-|-5p4p0-----0-4h7-5h7-4h7-|


  S S S S S S S S S S S S   E E E E E S S   S S S S S S S S S S S S
|-------------------------|---------------|-------------------------|
|-------------------------|---------------|-------------7-5-4-------|
|-------------5-5---------|---4-5-7-5-4-5-|-------------------7-5-4-|
|-5-5-5-5-5-5-----5-5-5-5-|-4-------------|-5-5-5-5-5-5-------------|


  S S S S S S S S S S E   S S S S S S S S S S S S   S S S S S S S S S S S S
|-----------------------|-------------------------|--------------------------|
|-----------------------|-------------------------|--------------------------|
|-4-4---------5-5-4-----|-------------5-5---5-----|-------4-----4-5-5-5-5-5--|
|-----4-4-5-5---------4-|-5-5-5-5-5-5-----5---5-5-|-4-4-4---4-4--------------|


    S S S S S S S S S S S S   S S S S S S S S S S S S  4x S S S S H
||--------------------------|--------------------------||--------------*|
||o-------------------------|-------------------------o||--------------*|
||o-------5-----------5-----|-------5-----------------o||-------5------*|
||--5p4p0-----0-5p4p0-----0-|-5p4p0-----0-4h7-5h7-4h7--||-5p4p0--------*|


Duration Legend
---------------
+ - note tied to previous; . - note dotted; .. - note double dotted
Uncapitalized letters represent notes that are staccato (1/2 duration)
Irregular groupings are notated above the duration line
Duration letters will always appear directly above the note/fret number it represents the
duration for.  Duration letters with no fret number below them represent rests.  Multi-
bar rests are notated in the form Wxn, where n is the number of bars to rest for.  Low
melody durations appear below the staff

Tablature Legend
----------------
 h   - hammer-on
 p   - pull-off
 b   - bend
 pb  - pre-bend
 r   - bend release (if no number after the r, then release immediately)
 /\  - slide into or out of (from/to "nowhere")
 s   - legato slide
 S   - shift slide
n(n) - tapped harmonic
 ~   - vibrato
 tr  - trill
 T   - tap
 TP  - trem. picking
 PM  - palm muting
\n/  - tremolo bar dip; n = amount to dip
 \n  - tremolo bar down
 n/  - tremolo bar up
/n\  - tremolo bar inverted dip
 =   - hold bend; also acts as connecting device for hammers/pulls
   - volume swell (louder/softer)

Misc Legend
-----------
 |  - bar
||o - repeat start
o|| - repeat end
 :  - bar (freetime)
 &  - Coda
Composição: Coheed and Cambria

0 comentários

    mostrar mais comentários

    Conseguiu tocar?

    0tocaram0ainda não

    Grave um vídeo tocando Hearshot Kid Disaster e mande pra gente!

    00:00 / 00:00
    outros vídeos desta música
    repetirqualidadeautomática
    Outro vídeos desta música
      00:00 / 00:00
      automática
      OK