Cifra Club

Mother Superior Acoustic

Coheed And Cambria

Cifra: Principal
exibições 1.728
Tom: C
Track: Mother Superior (Acoustic, live at NAMM 07 version)
Album: No World For Tomorrow Deluxe 'Snazzy' Version
Tabber (That's ME!): osmark90

My second tab on the new album, this song be smoother than a cougar...
love it! LOVE IT!

Intro:
Guitar 1 (The Claud)

e|-------------------------------------------------|
b|-------------------------------------------------|
g|--------0----------------------------------------|
D|------3---3------7---------7-5h7---10-10s12------|
A|--3h5-------5--5---8-7-7h8-------8---------------|
E|-------------------------------------------------|

e|-----------------------------------|
b|-----------------------------------|
g|-----------------------0-----------|
D|-------2-3v-2--------3-------------| x2
A|--3-5---------5-3--1-----1-0-------|
E|-----------------------------3-----|

Guitar 2: (The English Panther)

e|------------------------1-3-5-3---3----|
b|--6s3-3v--------1-----1----------------|
g|--7s2-2v----------2-----------5-----5--|
D|----------0-2-3-----3-----------3------|
A|---------------------------------------|
E|---------------------------------------|

e|-3-1-0-----------------------|
b|--------3---3----3-1---------|
g|---------------------3-2~----|
D|----------3------------------|
A|--------1-----1--1-----------|
E|-----------------------------|

Verse: 'Here, sleep at the bottom of hell'
Same as Intro x4

Pre Chorus:
Guitar 1:

e|--0--0---0--------------------------|
b|--3--3---3-0--0---------------------|
g|--2--2---2s1--1------------5-5-5----|
D|--0--0---0-0--0--3-3-3s5-5-5-5-5----| x2
A|--0--0---0-0--0--1-1-1s3-3-3-3-3----|
E|------------------------------------|

Guitar 2:

e|-------------------------------------------------|
b|-----------8----8----8-----9----9----9----9------|
g|------------10---10---10----10---10---10---10----|
D|--10h12-12----12---12---12----12---12---12---12--|
A|-------------------------------------------------|
E|-------------------------------------------------|

e|--------------------------------------|
b|---6--6--6--6-----8---8---8---(8------|
g|----7--7--7--7-----9---9---9----9-----|
D|-----8--8--8--8-----10--10--10---10)--| x2
A|--8-------------10--------------------|
E|--------------------------------------|

The one in brackets isnt played the second time round

Chorus:
Guitar 1: 'Mother Superior...'

e|--------------------|
b|--------------------|
g|------7-------5-----|
D|--3---7---7---5-----| x2
A|--3---5---7---3-----|
E|--1-------5---------|
PM|===================

'Your answer is in there...'
e|-----------------------------------|
b|-----------------------------------|
g|-3--3s5--5-----7-----3--3--5-------|
D|-3--3s5--5--3--7-x2--3--3--5-------|
A|-1--1s3--3--3--5-----1--1--3-------|
E|------------1----------------------|

Guitar 2:

e|-----------------1-1--1--1--1----|
b|--1-1--1--1--1---3--3--3--3--3---|
g|--2--2--2--2--2--2---2--2--2--2--|
D|--3---3--3--3--3-0---------------|
A|--3------------------------------|
E|---------------------------------|

e|-----------------------|
b|--1-1--1--1p0--1----1--|
g|--2--2--2----2--2---2--|
D|--2---2--2----2--2--2--| x2
A|--0-----------------3--|
E|-----------------------|

e|-------------0--1---------------|
b|-------------1--3---------------|
g|--3--3s5--5--2--2------3--3--5--|
D|--3--3s5--5--3--0-x2---3--3--5--|
A|--1--1s3--3--3---------1--1--3--|
E|--1--1s3--3------------1--1--3--|

Interlude = Intro

Verse 2 (cue the gibberish!) = Verse 1

Pre Chorus

Chorus

Outro:
Guitar 1: 'Not Anymore...'

e|------------------------|
b|------------------------|
g|------------------------|
D|--0h8-8--5-----3--2-----|
A|--0h8-8--5-x3--3--3-----| x2
E|--0h6-6--3-----1--0-----|

Just begin the outro with the hammer, not repeated...
unless you want it to be...

Guitar 2: (x2)

e|-----------------------5--------------------|
b|--6s3------3----3v---6---3v-3v-6p3----------|
g|--7s2----2---2--2v------------------3-2v----|
D|-------0------------------------------------|
A|--------------------------------------------| x3
E|--------------------------------------------|

He toys a little with the D part, listen to the song and you'll get it.

e|----------------------------------------|
b|----------------------------------------|
g|--3-2-0-2-0---0-------------------------|
D|------------3---3-2--3-2-0-2-0---3-2----|
A|-------------------------------3-----5v-|
E|----------------------------------------|

End On:

e|---1----|
b|---3----|
g|---2v---|
D|---0----|
A|---0----|
E|--------|

So there it is... i hope. Feel free to express your love
for this tab or downright fiery fury in the comments section!
Please rate aswell, Cheerio!
Acordes para:

    0 comentários

      mostrar mais comentários

      Conseguiu tocar?

      1tocaram0ainda não

      Grave um vídeo tocando Mother Superior Acoustic e mande pra gente!

      00:00 / 00:00
      outros vídeos desta música
      repetirqualidadeautomática
      Outro vídeos desta música
        00:00 / 00:00
        automática
        OK