Enviar cifraEntrar

The Running Free

Coheed And Cambria

Tab de baixo: Principal
exibições 531

Tabbed by Chaperoni
Track 1



     Q    Q    Q    E  E      S S S S S  S  S S S S S S S S S S    S S S S S  S  S S S S S S E  E   
G||------------------------|------------------------------------|----------------------------------|
D||------------------------|----------------------------7-------|----------------------------------|
A||------------------------|--5-7---7---(7)-5-7---7---7---8-7-0-|--5-7---7---(7)-5-7---------------|
E||--------------------7\--|------------------------------------|----------------------0-0---------|


  S S S S S  S  S S S S S S S S S S    S S S S S  S  S S S S S S E  E    
------------------------------------|-----------------------------------|
----------------------------7-------|-----------------------------------|
--5-7---7---(7)-5-7---7---7---8-7-0-|--5-7---7---(7)-5-7----------------|
------------------------------------|----------------------0-0------7\--|


  S S S S S  S  S S S S S S S S S S    S S S S S  S  S S S S S E  S S S  
------------------------------------|-----------------------------------|
----------------------------7-------|-----------------------------5-9-5-|
--5-7---7---(7)-5-7---7---7---8-7-0-|--5-7---7---(7)-5-7----------------|
------------------------------------|----------------------0-0----------|


   S S S S S S S S S S S S S S S S    S S S S S  S  S S S S S S S S E    
-----------------------------------|------------------------------------|
--10-----9-----5-5---7---5-9-5-----|------------------------------------|
-------------------------------0-0-|--5-7---7---(7)-5-7-----------------|
-----------------------------------|----------------------0-0-------7\--|


  S S S S S S S S S S S S S S S S    S S S S S S S S S S S S S S S S  
----------------------------------|----------------------------------|
----------------------------------|----------------------------------|
----------------------------------|----------------------------------|
--1-1-1-1-1-1-1-1-1-1-1-1-1-1-1-0-|--7-7-7-7-7-7-7-7-7-7-7-7-7-7-7-0-|


  S S S S S S S S S S S S S S S S    S S S S S S S S S S S S S S S S  
----------------------------------|----------------------------------|
----------------------------------|----------------------------------|
----------------------------------|----------------------------------|
--5-5-5-5-5-5-5-5-5-5-5-5-5-5-5-5-|--1-1-1-1-1-1-1-1-1-1-1-1-1-1-1-1-|


  S S S S S S S S S S S S S S S S    S S S S S S S S S S S S S S S S  
----------------------------------|----------------------------------|
----------------------------------|----------------------------------|
--3-3---3-3-3---3-3-3---3-3-3-----|----------------------------------|
--------------------------------3-|--3-3---3-3-3---3-3-3---3-3-3---3-|


  S S S S S S S S S S S S S S S S    S S S S S S S S S S S S S S S S  
----------------------------------|----------------------------------|
----------------------------------|----------------------------------|
----------------------------------|----------------------------------|
--5-5-5-5-5-5---5-5-5---5-5-5-3-1-|--1-1---1-1-1---1-1-1-3-1-3-0-1-3-|


  S S S S S S S S S S S T  S.S S S    S S S S S S S S S S S  S S S S S  
-----------------------------------|-----------------------------------|
-----------------------------------|-----------------------------------|
--3-3---3-3-3---3-3-3-----/5-3-2---|----------------------3\-----3-5-7-|
---------------------------------0-|--3-3---3-3-3---3-3-3----3-5-------|


  S S S S S S S S S S S S S S S S    S S S S S S S S S S S S S S S S    E.   E.  S S E.  E.  S S  
----------------------------------|----------------------------------|---------------------------|
----------------------------------|----------------------------------|---------------------------|
----------------------------------|----------------------------------|-----------5-7-8-------8-7-|
--5-5---5-5-5---5-5-5---5-5-5---1-|--1-1---1-1-1---1-1-1-1-1-1-1-1-1-|--5\-----------------------|


  S S S S S S S  S S S S E  E  S    E.   E.  S S E.  E.  S S    S S S S S S S  S S S S E  E  S  
---------------------------------|---------------------------|---------------------------------|
---------------------------------|---------------------------|---------------------------------|
---------------------------------|-----------5-7-8-------8-7-|---------------------------------|
--8-8-8-8-8-8-8-10-7-7-7-7--5--3-|--5\-----------------------|--8-8-8-8-8-8-8-10-7-7-7-7--5----|


  S S S S S  S  S S S S S S S S S S    S S S S S  S  S S S S S S E  E   
------------------------------------|----------------------------------|
----------------------------7-------|----------------------------------|
--5-7---7---(7)-5-7---7---7---8-7-0-|--5-7---7---(7)-5-7---------------|
------------------------------------|----------------------0-0---------|


  S S S S S  S  S S S S S S S S S S    S S S S S  S  S S S S S S E  E    
------------------------------------|-----------------------------------|
----------------------------7-------|-----------------------------------|
--5-7---7---(7)-5-7---7---7---8-7-0-|--5-7---7---(7)-5-7----------------|
------------------------------------|----------------------0-0------7\--|


  S S S S S  S  S S S S S S S S S S    S S S S S  S  S S S S S E  S S S  
------------------------------------|-----------------------------------|
----------------------------7-------|-----------------------------5-9-5-|
--5-7---7---(7)-5-7---7---7---8-7-0-|--5-7---7---(7)-5-7----------------|
------------------------------------|----------------------0-0----------|


   S S S S S S S S S S S S S S S S    S S S S S  S  S S S S S S S S E    
-----------------------------------|------------------------------------|
--10-----9-----5-5---7---5-9-5-----|------------------------------------|
-------------------------------0-0-|--5-7---7---(7)-5-7-----------------|
-----------------------------------|----------------------0-0-------7\--|


  S S S S S S S S S S S S S S S S    S S S S S S S S S S S S S S S S  
----------------------------------|----------------------------------|
----------------------------------|----------------------------------|
----------------------------------|----------------------------------|
--1-1-1-1-1-1-1-1-1-1-1-1-1-1-1-0-|--7-7-7-7-7-7-7-7-7-7-7-7-7-7-7-0-|


  S S S S S S S S S S S S S S S S    S S S S S S S S S S S S S S S S  
----------------------------------|----------------------------------|
----------------------------------|----------------------------------|
----------------------------------|----------------------------------|
--5-5-5-5-5-5-5-5-5-5-5-5-5-5-5-5-|--1-1-1-1-1-1-1-1-1-1-1-1-1-1-1-1-|


  S S S S S S S S S S S S S S S S    S S S S S S S S S S S S S S S S  
----------------------------------|----------------------------------|
----------------------------------|----------------------------------|
--3-3---3-3-3---3-3-3---3-3-3-2---|----------------------------------|
--------------------------------5-|--3-3---3-3-3---3-3-3---3-3-3---3-|


  S S S S S S S S S S S S S S S S    S S S S S S S S S S S S S S S S  
----------------------------------|----------------------------------|
----------------------------------|----------------------------------|
----------------------------------|----------------------------------|
--5-5-5-5-5-5---5-5-5---5-5-5-3-1-|--1-1---1-1-1---1-1-1-3-1-3-0-1-3-|


  S S S S S S S S S S S  E  S S S    S S S S S S S S S S S  S S S S S  
----------------------------------|-----------------------------------|
----------------------------------|-----------------------------------|
--3-3---3-3-3---3-3-3---/5--3-2---|----------------------3\-----3-5-7-|
--------------------------------0-|--3-3---3-3-3---3-3-3----3-5-------|


  S S S S S S S S S S S S S S S S    S S S S S S S S S S S S S E  S    E.   E.  S S E.  E.  S S  
----------------------------------|---------------------------------|---------------------------|
----------------------------------|---------------------------------|---------------------------|
----------------------5---3-2-----|----------------------3---3------|-----------5-7-8-------8-7-|
--5-5---5-5-5---5-5-5---5-----5-3-|--1-1---1-1-1---1-1-1---1---5----|--5\-----------------------|


  S S S S S S S  S S S S E  E  S    E.   E.  S S E.  E.  S S    S S S S S S S  S S S S E  E  S  
---------------------------------|---------------------------|---------------------------------|
---------------------------------|---------------------------|---------------------------------|
---------------------------------|-----------5-7-8-------8-7-|---------------------------------|
--8-8-8-8-8-8-8-10-7-7-7-7--5--3-|--5\-----------------------|--8-8-8-8-8-8-8-10-7-7-7-7--5----|


  S S S E   S S S S S S S S S S S    S S S S S S S S S S S S S E  S  
----------------------------------|---------------------------------|
----------------------------------|---------------------------------|
--------------------------------2-|--3-----3-----3-5-2-----2--------|
--5-----5\----1-1-1-----1-----5---|----------------------------5--3-|


  S S S E   S S S S S S S S S S S    S S S S S S S S S S S S S E  S  
----------------------------------|---------------------------------|
----------------------------------|---------------------------------|
--------------------------------2-|--3-----3-----3-5-2-----2--------|
--5-----5\----1-1-1-----1-----5---|----------------------------5--3-|


  S S S E.   S S S S S E.   S S    S S S S S S S S S S S S S E  S  
--------------------------------|---------------------------------|
--------------------------------|---------------------------------|
-------------5-7-8-----8\---8-7-|--3-----3-----3-5-2-----2--------|
--5-----5\----------------------|----------------------------5--3-|


  S S S S S S S S S S S S S S S S    S S S S S S S  S S S S E   S S S    W                 
----------------------------------|-----------------------------------|-------------------|
----------------------------------|-----------------------------------|-------------------|
--------------5-7-8-8-8-8-8-7-8-7-|-----------------------------------|--3----------------|
--5-5-5-5-5-5---------------------|--8-8-8-8-8-8-8-10-7-7-7-7\--3-5-7-|-------------------|


  W                   E.  S E.  S S S S S S S S S    S S S S S S S S S S S S S S S S  
-------------------|------------------------------|----------------------------------|
-------------------|--------------7---------------|----------------------------------|
-------------------|--------7---7---7---7-5-7-5-5-|----------------------------------|
--3----------------|--5---5-----------------------|--1-1-1-1-1-1-1-1-1-1-1-1-1-1-1-1-|


  S S S S S S S S S S S  E  S S S    S S S S S S S S S S S  S S S S S  
----------------------------------|-----------------------------------|
----------------------------------|-----------------------------------|
--3-3---3-3-3---3-3-3---/5--3-2---|----------------------3\-----3-5-7-|
--------------------------------0-|--3-3---3-3-3---3-3-3----3-5-------|


  S S S S S S S S S S S S S S S S    S S S S S S S S S S S S S S S S  
----------------------------------|----------------------------------|
----------------------------------|----------------------------------|
----------------------------------|----------------------------------|
--5-5---5-5-5---5-5-5---5-5-5---1-|--1-1---1-1-1---1-1-1-1-1-1-1-1-1-|


  S S S S S S S S S S S  E  S S S    S S S S S S S S S S S  S S S S S  
----------------------------------|-----------------------------------|
----------------------------------|-----------------------------------|
--3-3---3-3-3---3-3-3---/5--3-2---|----------------------3\-----3-5-7-|
--------------------------------0-|--3-3---3-3-3---3-3-3----3-5-------|


  S S S S S S S S S S S S S S S S    S S S S S S S S S S S S S S S S  
----------------------------------|----------------------------------|
----------------------------------|----------------------------------|
----------------------------------|----------------------------------|
--5-5---5-5-5---5-5-5-7-5-8-7-5-1-|--1-1---1-1-1---1-1-1-3-1-3-0-1-3-|


  S S S S S S S S S S S  E  S S S    S S S S S S S S S S S  S S S S S  
----------------------------------|-----------------------------------|
----------------------------------|------------------5----------------|
--3-3---3-3-3---3-3-3---/5--3-2---|--------------------3-5\-2---3-5-7-|
--------------------------------0-|--3-3---3-3-3---3----------5-------|


  S S S S S S S S S S S S S S S S    S S S S S S S S S S S S S E  S    E.   E.  S S E.  E.  S S  
----------------------------------|---------------------------------|---------------------------|
----------------------------------|---------------------------------|---------------------------|
----------------------5---5-3-2---|---------------------------------|-----------5-7-8-------8-7-|
--5-5---5-5-5---5-5-5---5-------0-|--1-1-1-1-1-1-1-1-1-1-1-1-1-1----|--5\-----------------------|


  S S S S S S S  S S S S E  E  S    E.   E.  S S E.  E.  S S    S S S S S S S  S S S S E  E  S  
---------------------------------|---------------------------|---------------------------------|
---------------------------------|---------------------------|---------------------------------|
---------------------------------|-----------5-7-8-------8-7-|---------------------------------|
--8-8-8-8-8-8-8-10-7-7-7-7--5--3-|--5\-----------------------|--8-8-8-8-8-8-8-10-7-7-7-7--5--3-|


  Q     H.             
---------------------||
---------------------||
---------------------||
--5\-----------------||




Duration Legend
---------------
W - whole
H - half
Q - quarter
E - 8th
S - 16th
T - 32nd
X - 64th
. - note dotted


Tablature Legend
----------------
L - tied note
x - dead note
(n) - ghost note
> - accentuded note
NH - natural harmonic
AH - artificial harmonic
TH - tapped harmonic
SH - semi harmonic
PH - pitch harmonic
h - hammer on
p - pull off
b - bend
br - bendRelease
pb - preBend
pbr - preBendRelease
brb - bendReleaseBend
\n/ - tremolo bar dip
\n - tremolo bar dive
-/n - tremolo bar Release up
/n\ - tremolo bar inverted dip
/n - tremolo bar return
-\n - tremolo bar Release down
S - shift slide
s - legato slide
/ -  slide into from below or out of upwards
\ -  slide into from above or out of downwards
~ - vibrato
W - wide vibrato
tr - trill
TP - tremolo picking
T - tapping
S - slap
P - pop
< - fade in
^ - brush up
v - brush down
  • 1
  • 2
  • 3
  • 4
  • 5
  • 6
  • 7
  • 8
  • 9
  • 10
  • 11
  • 12

    0 comentários

      mostrar mais comentários

      Conseguiu tocar?

      0tocaram0ainda não

      Grave um vídeo tocando The Running Free e mande pra gente!

      00:00 / 00:00
      outros vídeos desta música
      repetirqualidadeautomática
      • automática
      Outro vídeos desta música
        00:00 / 00:00
        automática
        • automática
        Acordes para:violão e guitarra
        dificuldadeexibiçõescontribuições
        1 versão de Tab de baixoexibiçõescontribuições
        fecharplay/pause subir/descer velocidade
        fechar
        OK