Makes Her Sick

Cold

tom: D
Intro 
--777777777777777-999999999-11-11-11-11-11-11---------------
------------------------------------------------------------

Verse
------------------------------------------------------------
------------------------------------------------------------
------------------------------------------------------------
------------------------------------------------------------
--4-4--4-44--4-44-4-44-0-5/66-6-66-6-66-6-88-7-6------------
--2-2--2-22--2-22-2-22-0-3/44-4-44-4-44-4-66-5-4------------

Chorus
------------------------------------------------------------
------------------------------------------------------------
--7-6--4/9-7---7-6--4/9-7-----------------------------------
--5-6--4/9-7---5-6--4/9-7-----------------------------------
--0-6--4/9-7---0-6--4/9-7-----------------------------------
------------------------------------------------------------
Página 1 / 1

Letras e título
Acordes e artista

resetar configurações
OK