Enviar cifraEntrar

A Sky Full Of Stars

Coldplay

Tab de baixo: Principal
exibições 8.860
Introdução: sem contrabaixo;

1º Refrão: sem contrabaixo;

1º Verso: sem contrabaixo;


1º Instrumental (1/3):
G|---------------------------------------------|
D|---------------------------------------------|
A|-6-6-6--4-4------------9-9-9--9-9-8-8-8------|
E|------------7-7-7--7-7-------------------6-6-|

1º Instrumental (2/3):
G|---------------------------------------------|
D|---------------------------------------------|
A|-6-6-6--4-4------------9-9-9--9-9--------8-8-|
E|------------7-7-7--7-7------------9-9-9------|

1º Instrumental (3/3):
G|-----------------------------------------------|
D|-----------------------------------------------|
A|-6-6-6--4-4------------9-9-9--9-9-8-8-8--------|
E|------------7-7-7--7-7-------------------6-6-6-|


2º Refrão (1/4): sem contrabaixo;

2º Refrão (2/4): sem contrabaixo;

2º Refrão (3/4):
G|---11----11----11----10---|
D|-13-----9-----------8-----|
A|--------------9-----------|
E|--------------------------|

2º Refrão (4/4):
G|---11----11----11----10---|
D|-13-----9-----------8-----|
A|--------------9-----------|
E|--------------------------|

Restante 2º Refrão sem contrabaixo;


2º Instrumental (1/4):
G|-----------------------------------------------|
D|-----------------------------------------------|
A|-6-6-6--4-4------------9-9-9--9-9-8-8-8--------|
E|------------7-7-7--7-7-------------------6-6-6-|

2º Instrumental (2/4):
G|---------------------------------------------|
D|---------------------------------------------|
A|-6-6-6--4-4------------9-9-9--9-9--------8-8-|
E|------------7-7-7--7-7------------9-9-9------|

2º Instrumental (3/4):
G|---------------------------------------------|
D|---------------------------------------------|
A|-6-6-6--4-4------------9-9-9--9-9--------8-8-|
E|------------7-7-7--7-7------------9-9-9------|

2º Instrumental (4/4):
G|-----------------------------------------------|
D|-----------------------------------------------|
A|-6-6-6--4-4------------9-9-9--9-9-8-8-8--------|
E|------------7-7-7--7-7-------------------6-6-6-|


3º Instrumental (1/2):
G|-8-8-8--8-8/10-10-10--10-10/11-11-11--11-11--11-11-11-/15-15-15\-|
D|-----------------------------------------------------------------|
A|-----------------------------------------------------------------|
E|-7-7-7--7-7/9--9--9---9--9-/11-11-11--11-11--11-11-11-/14-14-14\-|

3º Instrumental (2/2):
G|-8-8-8--8-8/10-10-10--10-10/11-11-11--11-11--11-11-11-/15-15-15\-|
D|-----------------------------------------------------------------|
A|-----------------------------------------------------------------|
E|-7-7-7--7-7/9--9--9---9--9-/11-11-11--11-11--11-11-11-/14-14-14\-|


3º Refrão (1/3):
G|-8-8-8--8-8/10-10-10--10-10/11-11-11--11-11--11-11-11-/15-15-15\-|
D|-----------------------------------------------------------------|
A|-----------------------------------------------------------------|
E|-7-7-7--7-7/9--9--9---9--9-/11-11-11--11-11--11-11-11-/14-14-14\-|

3º Refrão (2/3):
G|-8-8-8--8-8/10-10-10--10-10/11-11-11--11-11--11-11-11-/15-15-15\-|
D|-----------------------------------------------------------------|
A|-----------------------------------------------------------------|
E|-7-7-7--7-7/9--9--9---9--9-/11-11-11--11-11--11-11-11-/14-14-14\-|

3º Refrão (3/3):
G|-8-8-8--8-8/10-10-10--10-10/11-11-11--11-11--11-11-11-/15-15-15\-|
D|-----------------------------------------------------------------|
A|-----------------------------------------------------------------|
E|-7-7-7--7-7/9--9--9---9--9-/11-11-11--11-11--11-11-11-/14-14-14\-|


Final (1/2):
G|-8----10---11---11-/15--|
D|------------------------|
A|------------------------|
E|-7----9----11---11-/14--|

Final (2/2):
G|-8----10--|
D|----------|
A|----------|
E|-7----9---|
  • 1
  • 2
  • 3
  • 4
  • 5
  • 6
  • 7
  • 8
  • 9
  • 10
  • 11
  • 12
    Composição: Chris Martin, Guy Berryman, Jon Buckland, Will ChampionColaboração e revisão:
    • Paulo Richa

    0 comentários

      mostrar mais comentários

      Conseguiu tocar?

      0tocaram0ainda não

      Grave um vídeo tocando A Sky Full Of Stars e mande pra gente!

      00:00 / 00:00
      outros vídeos desta música
      repetirqualidadeautomática
      • automática
      Outro vídeos desta música
        00:00 / 00:00
        automática
        • automática
        Acordes para:violão e guitarra
        dificuldadeexibiçõescontribuições
        1 versão de Tab de baixoexibiçõescontribuições
        1 versão de Partiturasformatodownloadscontribuição
        fecharplay/pause subir/descer velocidade
        fechar
        OK