Cifra Club

Adventure Of A Lifetime

Coldplay

Tab de baixo: Principal
exibições 1.308
Intro(0.08):
G|---------------------|---------------------|---------------------|--------------------|
D|---------------------|---------------------|---------------------|--------------------|
A|5-----------3--------|---------------------|0--------------------|--------------------|
E|---------------------|3--------------------|---------------------|----------0----0----|

Chorus 1(0.17):
G|---------------------|---------------------|---------------------|--------------------|
D|---------------------|---------------------|---------------------|--------------------|
A|---5---5-3-5-----3h5-|---------------------|---------------------|-----------3--------| x2
E|---------------------|---3-x-3---3-----0h3-|---5-0h5-0h5-----0h3-|---5-0h5--------3---|

Verse 1(0.34):
G|---------------------|---------------------|---------------------|--------------------|
D|---------------------|---------------------|---------------------|--------------------|
A|---5---5-3-5---------|---------------------|---------------------|-----------3--------|
E|---------------------|---3---3---3-----0h3-|---5-0h5-0h5-----0h3-|---5-0h5--------3---|

G|---------------------|---------------------|---------------------|--------------------|
D|---------------------|---------------------|---------------------|--------------------|
A|---5---5-3-5-----3h5-|---------------------|---------------------|-----------3--------| x4
E|---------------------|---3---3---3-----0h3-|---5-0h5-0h5-----0h3-|---5-0h5--------3---|

G|---------------------|---------------------|---------------------|---------------------|
D|---------------------|---------------------|---------------------|---------------------|
A|---5---5-3-5-----3h5-|---------------------|---------------------|---------------------| 
E|---------------------|---3-x-3---3-----0h3h|5--------------------|-----------0----0----|

Chorus 1 repeats(1.25)

Verse 2(1.42):
G|---------------------|---------------------|---------------------|--------------------|
D|---------------------|---------------------|---------------------|--------------------|
A|5--5---5-3-5---------|---------------------|---------------------|-----------3--------|
E|---------------------|---3---3---3-----0h3-|---5-0h5-0h5-----0h3-|---5-0h5--------3---|

G|---------------------|---------------------|---------------------|--------------------|
D|---------------------|---------------------|---------------------|--------------------|
A|5--5---5-3-5-----3h5-|---------------------|---------------------|-----------3--------| x2
E|---------------------|---3---3---3-----0h3-|---5-0h5-0h5-----0h3-|---5-0h5--------3---|

G|---------------------|---------------------|---------------------|---------------------|
D|---------------------|---------------------|---------------------|---------------------|
A|5--5---5-3-5-----3h5-|---------------------|---------------------|---------------------| 
E|---------------------|---3---3---3-----0h3h|5--------------------|-----------0----0----|

Chorus 2(2.17):
G|---------------------|---------------------|---------------------|--------------------|
D|---------------------|---------------------|---------------------|--------------------|
A|5--5-x-5-3-5-----3h5-|---------------------|---------------------|-----------3--------|
E|---------------------|---3-x-3---3-----0h3-|---5-0h5-0h5---0-0h3-|---5-0h5--------3---|

G|---------------------|---------------------|---------------------|--------------------|
D|---------------------|---------------------|-------------5---7\--|--------------------|
A|5--5-x-5-3-5-----3h5-|---------------------|---------------------|-----------3--------|
E|---------------------|---3-x-3---3-----0h3-|5--5-0h5-0-55--------|5--5-0h5--------3---|

Bridge(2.34):
G|---------------------|---------------------|---------------------|---------------------|
D|---------------------|---------------------|---------------------|---------------------|
A|5--------------------|---------------------|0--------------------|0--------------------| x2
E|---------------------|3--------------------|---------------------|-----------3---------|

G|---------------------|---------------------|---------------------|---------------------|
D|---------------------|5--------------------|---------------------|---------------------|
A|5--------------------|------------7--5--7--|0--------------------|---------------------|
E|---------------------|---------------------|---------------------|---------------------|

G|--------------------|--------------------|
D|--------------------|--------------------|
A|0----0----0----0----|0----0--------------|
E|--------------------|----------0----0----|

Chorus 4(3.04):
G|-----------------------|---------------------|---------------------|--------------------|
D|-----------------------|---------------------|---------------------|--------------------|
A|(5)--5-x-5-3-5-----3h5-|---------------------|---------------------|-----------3--------| x7
E|-----------------------|---3-x-3---3-----0h3h|5--5-0h5-0h5-----0h3-|---5-0h5--------3---| 
  (5) can be played sometimes and sometimes not with no real pattern
G|---------------------|---------------------|---------------------|--------------------|
D|---------------------|---------------------|-------------5---7\--|--------------------|
A|5--5-x-5-3-5-----3h5-|---------------------|---------------------|-----------3--------|
E|---------------------|---3-x-3---3-----0h3-|5--5-0h5-0-55--------|5--5-0h5--------3---|

Outro(3.55):
G|---------------------|---------------------|---------------------|--------------------|
D|---------------------|---------------------|---------------------|--------------------|
A|5--5-x-5-3-5-----3h5-|---------------------|---------------------|-----------3--------| x2
E|---------------------|---3-x-3---3-----0h3h|5--5-0h5-0h5-----0h3-|---5-0h5--------3---| 

G|---------------------|---------------------|---------------------|--------------------|
D|---------------------|---------------------|---------------------|--------------------|
A|5-----------3--------|---------------------|0--------------------|--------------------|
E|---------------------|3--------------------|---------------------|--------------------|
Colaboração e revisão:
  • Danillo Alcântara

0 comentários

    mostrar mais comentários

    Conseguiu tocar?

    0tocaram0ainda não

    Grave um vídeo tocando Adventure Of A Lifetime e mande pra gente!

    00:00 / 00:00
    outros vídeos desta música
    repetirqualidadeautomática
    Outro vídeos desta música
      00:00 / 00:00
      automática
      OK