Cifra Club

All Your Friends

Coldplay

Tab de baixo: Principal
exibições 1.138
Introdução (1/3):
G|-----------------------------------------------------|
D|-----------------------------------------------------|
A|-----------------------------------------------------|
E|-14---\9-/12---\9-/----------------------------------|

Introdução (2/3):
G|-----------------------------------------------------|
D|-----------------------------------------------------|
A|-----------------------------------------------------|
E|-14---\9-/12---\9-/----------------------------------|

Introdução (Solo Contrabaixo) (3/3):
G|-----------------------------------------------------|
D|-11/16----11/14----16--18-19-18-16-\11-11/14---------| Base é a mesma da Introdução
A|-----------------------------------------------------|
E|-----------------------------------------------9\----|



Verso (1/4):
G|-----------------------------------------------------|
D|-----------------------------------------------------|
A|-----------------------------------------------------|
E|-2---/9-/12---\9-/-----------------------------------|

Verso (2/4):
G|-----------------------------------------------------|
D|-----------------------------------------------------|
A|-----------------------------------------------------|
E|-14---\9-/12---\9-/----------------------------------|

Verso (3/4):
G|-----------------------------------------------------|
D|-----------------------------------------------------|
A|-----------------------------------------------------|
E|-14---\9-/12---\9-/----------------------------------|

Verso (4/4):
G|-----------------------------------------------------|
D|-----------------------------------------------------|
A|-----------------------------------------------------|
E|-14---\9-/12---\9------------------------------------|



Refrão (1/2):
G|-----------------------------------------------------|
D|-----------------------------------------------------|
A|-----------------------------------------------------|
E|-10----9----0----10---17\----------------------------|

Refrão (2/2):
G|-----------------------------------------------------|
D|-----------------------------------------------------|
A|--------------------------2-2--2-2-------------------|
E|-10----9----\0----10---5\----------0-0--0-0----------|



Solo Contrabaixo (Base é a mesma da Introdução):
G|-------------------------------------------------------|
D|-11/16---\11-11/14---\9-/16--18-19-18-16-\11-11/14-----|
A|-------------------------------------------------------|
E|-----------------------------------------------------9\|



Verso (1/4):
G|-----------------------------------------------------|
D|-----------------------------------------------------|
A|-----------------------------------------------------|
E|-2-2--2-2--2/9-/12-12--12-12--\9-/-------------------|

Verso (2/4):
G|-----------------------------------------------------|
D|-----------------------------------------------------|
A|-----------------------------------------------------|
E|-14-14--14-14--/9-/12-12--12-12--\9-/----------------|

Verso (3/4):
G|-----------------------------------------------------|
D|-----------------------------------------------------|
A|-----------------------------------------------------|
E|-14-14--14-14--/9-/12-12--12-12--\9-/----------------|

Verso (4/4):
G|-----------------------------------------------------|
D|-----------------------------------------------------|
A|-----------------------------------------------------|
E|-14-14--14-14--/9-/12-12--12-12--\9-/----------------|



Refrão (1/4):
G|--------------------------------------------------------|
D|--------------------------------------------------------|
A|--------------------------------------------------------|
E|-10-10--10-10---9-9--9-9---0-0--0-0---10-10--10-10---17\|

Refrão (2/4):
G|--------------------------------------------------------|
D|--------------------------------------------------------|
A|--------------------------------------------------------|
E|-10-10--10-10---9-9--9-9---\0-0--0-0---10-10--10-10-----|

Refrão (3/4):
G|--------------------------------------------------------|
D|--------------------------------------------------------|
A|-2-2--2-2-----------------------------------------------|
E|-----------0-0--0-0--2-2--2-2--2------------------------|

Refrão (4/4):
G|--------------------------------------------------------|
D|--------------------------------------------------------|
A|-2-2--2-2--7-7--7-7-------------------------------------|
E|---------------------2-2--2-2---2-----------------------|



Solo Teclado/Guitarra (1/2):
G|---------------------------------------------------------------------|
D|-12-12--12--------------------------11-11--11------------------------|
A|---------------------------------------------------------------------|
E|-----------10--10--/0-0--0-0--12--\-----------9--9--7-7--7-7--7--7/--|

Solo Teclado/Guitarra (2/2):
G|----------------------------------------------------------4--------4-|
D|-----------12--------------------------------------------------------|
A|-----------------------------------754-4--4--4--4--2-2--2---2-2--2---|
E|-10-10--10-----10--/0-0--0-0--0--07----------------------------------|



Final (1/4):
G|--------------------------------------------------------|
D|--------------------------------------------------------|
A|--------------------------------------------------------|
E|-10-10--10-10--0-0--0-0--2-2--2-2--2--------------------|

Final (2/4):
G|--------------------------------------------------------|
D|--------------------------------------------------------|
A|-2-2--2-2-----------------------------------------------|
E|-----------0-0--0-0--2-2--2-2--2------------------------|

Final (3/4):
G|--------------------------------------------------------|
D|--------------------------------------------------------|
A|-2-2--2-2-----------------------------------------------|
E|-----------0-0--0-0--2-2--2-2--2-2-2--2-2-2--2-2--------|

Final (4/4):
G|--------------------------------------------------------|
D|--------------------------------------------------------|
A|-2-2--2-2-----------------------------------------------|
E|-----------0--0--2-2--2-2-------------------------------|
Composição: Chris Martin, Guy Berryman, Jon Buckland, Will ChampionColaboração e revisão:
  • Paulo Richa

0 comentários

    mostrar mais comentários

    Conseguiu tocar?

    0tocaram0ainda não

    Grave um vídeo tocando All Your Friends e mande pra gente!

    00:00 / 00:00
    outros vídeos desta música
    repetirqualidadeautomática
    Outro vídeos desta música
      00:00 / 00:00
      automática
      OK