Cifra Club

Cemeteries Of London

Coldplay

Tab de baixo: Principal
exibições 352
1º Verso:
G|-----------------------------------------------------------------------|
D|--------4-4-4-44-4--------------------------4-4-4-44-4---8-8-4----8-8-4|
A|6-6-66-6----------4-4-44-4-6-6-66-4-6-6-66-6---------------------------|
E|------6-----------------4--------6--------6-----------6-6------6-6-----|

G|-----------------------------------------------------------------------|
D|--------4-4-4-44-4--------------------------4-4-4-44-4---8-8-4----8-8-4|
A|6-6-66-6----------4-4-44-4-6-6-66-4-6-6-66-6---------------------------|
E|------6-----------------4--------6--------6-----------6-6------6-6-----|

Refrão:
G|8-8-88-6-8-8-88-6-8-8-88-88-8---------------------------------|
D|------8--------8---------------------4-4-44-4-4---------------|
A|-----------------------------6-6-66-6----------4-4-44-4-6-6-66|
E|-----------------------------------6-----------------4--------|

G|8-8-88-6-8-8-88-6-8-8-88-88-8---------------------------------|
D|------8--------8---------------------4-4-44-4-4---------------|
A|-----------------------------6-6-66-6----------4-4-44-4-6-6-66|
E|-----------------------------------6-----------------4--------|

2º Verso:
G|-----------------------------------------------------------------------|
D|--------4-4-4-44-4--------------------------4-4-4-44-4---8-8-4----8-8-4|
A|6-6-66-6----------4-4-44-4-6-6-66-4-6-6-66-6---------------------------|
E|------6-----------------4--------6--------6-----------6-6------6-6-----|

G|-----------------------------------------------------------------------|
D|--------4-4-4-44-4--------------------------4-4-4-44-4---8-8-4----8-8-4|
A|6-6-66-6----------4-4-44-4-6-6-66-4-6-6-66-6---------------------------|
E|------6-----------------4--------6--------6-----------6-6------6-6-----|

Refrão:
G|8-8-88-6-8-8-88-6-8-8-88-88-8---------------------------------|
D|------8--------8---------------------4-4-44-4-4---------------|
A|-----------------------------6-6-66-6----------4-4-44-4-6-6-66|
E|-----------------------------------6-----------------4--------|

G|8-8-88-6-8-8-88-6-8-8-88-88-8---------------------------------|
D|------8--------8---------------------4-4-44-4-4---------------|
A|-----------------------------6-6-66-6----------4-4-44-4-6-6-66|
E|-----------------------------------6-----------------4--------|
Composição: Chris Martin / Guy Berryman / Jon Buckland / Will ChampionColaboração e revisão:
  • Mansinho Jr.

0 comentários

    mostrar mais comentários

    Conseguiu tocar?

    0tocaram0ainda não

    Grave um vídeo tocando Cemeteries Of London e mande pra gente!

    00:00 / 00:00
    outros vídeos desta música
    repetirqualidadeautomática
    Outro vídeos desta música
      00:00 / 00:00
      automática
      OK