Cifra Club

Charlie Brown

Coldplay

Tab de baixo: Principal
exibições 1.869
Introdução (0:26)
G|-----------------------------------------------------|
D|-----------------------------------------------------|
A|10-10-10-10-10\6-6-6/13-13-13-13-13-13-13-13-13-13-13|
E|-----------------------------------------------------|

G|-------------------------------------------------------------------------|
D|------------------13-13-13-13-13-13-13-----------------------------------|
A|10-10-10-10-10-10----------------------6-6-6--6-6-6/15-15-15-15-15-15-15-|
E|-------------------------------------------------------------------------|

Verso I (Sem Baixo)

Riff Principal (1:18)
G|-----------------------------------------------------|
D|-----------------------------------------------------|
A|10-10-10-10-10\6-6-6/13-13-13-13-13-13-13-13-13-13-13|
E|-----------------------------------------------------|

G|-------------------------------------------------------------------------|
D|------------------13-13-13-13-13-13-13-----------------------------------|
A|10-10-10-10-10-10----------------------6-6-6--6-6-6/15-15-15-15-15-15-15-|
E|-------------------------------------------------------------------------|

Verso II (Sem Baixo)

"Light a fire, a fire, a spark 
Light a fire, a flame in my heart "
G|--------------------------------|
D|--------------------------------|
A|6~~-----------------------------|
E|----6~~--3~~-~3~~---------------|

Riff Principal 2x (2:05)

G|-----------------------------------------------------|
D|-----------------------------------------------------|
A|10-10-10-10-10\6-6-6/13-13-13-13-13-13-13-13-13-13-13|
E|-----------------------------------------------------|

G|-------------------------------------------------------------------------|
D|------------------13-13-13-13-13-13-13-----------------------------------|
A|10-10-10-10-10-10----------------------6-6-6--6-6-6/15-15-15-15-15-15-15-|
E|-------------------------------------------------------------------------|

G|-----------------------------------------------------|
D|-----------------------------------------------------|
A|10-10-10-10-10\6-6-6/13-13-13-13-13-13-13-13-13-13-13|
E|-----------------------------------------------------|

G|-------------------------------------------------------------------------|
D|------------------13-13-13-13-13-13-13-----------------------------------|
A|10-10-10-10-10-10----------------------6-6-6--6-6-6/15-15-15-15-15-15-15-|
E|-------------------------------------------------------------------------|

Ponte "All The Boys" (2:30)
G|-----------------------------------------------|
D|-----------------------------------------------|
A|8-8-8-8-888-8-8-8-8-888-6-6-6-6-666------------|
E|------------------------------------6-6-6-6-666|

G|-----------------------------------------------|
D|-----------------------------------------------|
A|8-8-8-8-888-8-8-8-8-888-6-6-6-6-666------------|
E|------------------------------------6-6-6-6-666|
       
G|-----------------------------------------------|
D|-----------------------------------------------|
A|8-8-8-8-888-8-8-8-8-888-6-6-6-6-666------------|
E|-----------------------------------6-6-6-66-3~~|

We'll run wild
G|-----------------------------------------------|
D|-----------------------------------------------|
A|-----------------------------------------------|
E|------3~~--------------------------------------|

Interlúdio
G|-----------------------------------------------|
D|-----------------------------------------------|
A|------6~~-----------6~~--3~~-------------------|
E|-3~~------6~~---3~~----------------------------|

G|-----------------------------------------------|
D|-----------------------------------------------|
A|------6~~-----------6~~--3~~-------------------|
E|-3~~------6~~---3~~----------------------------|

Riff Principal 2x (3:25)
|-----------------------------------------------------|
D|-----------------------------------------------------|
A|10-10-10-10-10\6-6-6/13-13-13-13-13-13-13-13-13-13-13|
E|-----------------------------------------------------|

G|-------------------------------------------------------------------------|
D|------------------13-13-13-13-13-13-13-----------------------------------|
A|10-10-10-10-10-10----------------------6-6-6--6-6-6/15-15-15-15-15-15-15-|
E|-------------------------------------------------------------------------|

G|-----------------------------------------------------|
D|-----------------------------------------------------|
A|10-10-10-10-10\6-6-6/13-13-13-13-13-13-13-13-13-13-13|
E|-----------------------------------------------------|

G|-------------------------------------------------------------------------|
D|------------------13-13-13-13-13-13-13-----------------------------------|
A|10-10-10-10-10-10----------------------6-6-6--6-6-6/15-15-15-15-15-15-15-|
E|-------------------------------------------------------------------------|

"So we'll soar"
G|-------------------------------------------|
D|-------------------------------------------|
A|10-10-10-10-10-10-6-6-6--------------------|
E|------------------------6-6-6-6-6-6-6-6-6-6|

"Luminous and wired
We'll be glowing in the dark"
G|-------------------------------------------|
D|-------------------------------------------|
A|6~~~~-------////13~~~~~--------------------|
E|--------6///-------------------------------|

0 comentários

    mostrar mais comentários

    Conseguiu tocar?

    0tocaram0ainda não

    Grave um vídeo tocando Charlie Brown e mande pra gente!

    00:00 / 00:00
    outros vídeos desta música
    repetirqualidadeautomática
    Outro vídeos desta música
      00:00 / 00:00
      automática
      OK