Cifra Club

Death And All His Friends

Coldplay

Tab de baixo: Principal
exibições 244
Play part below at 01:49 and on 02:08.

---4/4
---E-E-E-E-E-Q---E---E-E-E-E-E-E-Q-----||
G|-----------------|-------------------||
D|-----------------|-------------------||
A|-3-3-3-3-3-3---1+|-1-1-1-1-1-1+1-----||
E|-----------------|-------------------||

The part below is played after the first time palyed the part above and also after the 
time.

---Q---Q---E-E-E-E---E-E-E-E-E-E-E-E---Q---Q---E-E-E-E---E-E-E-E-E-E-E-E---||
G|-8---8---8-------|-8-8-------------|-8---8---8-------|-8-8---------------||
D|-------------8-10|-----10------8-10|-------------8-10|-----10------8-10--||
A|-----------6-----|-------6+--6-----|-----------6-----|-------6+--6-------||
E|-----------------|-----------------|-----------------|-------------------||

Finish with this in a diffent time-signature: 7/4.

---7/4
---Q---Q---Q---E-E-E-Q---E-Q-------Q---Q---Q---E-E-E-Q---E-Q-----Q---Q---Q---E-E-E-Q---E-Q-||
G|-----------------------------||------------------------------|---------------------------||
D|-----------------------------||*-----------------------------|---------------------------||
A|-----------------------------||*-----------------------------|-----5---6---6-6-6-6---6-6-||
E|-6---6---4---4-4-4-4---4-4---||--8---8---6---6-6-6-6---6-6---|-8-------------------------||

---------------------------------------------------------------4/4---------------||
---Q---Q---Q---E-E-E-Q---E-Q-----Q---Q---Q---E-E-E-Q---E-Q-----W-----------------||
G|-----------------------------|----------------------------||-------------------||
D|-----------------------------|---------------------------*||-------------------||
A|-----------------------------|---------------------------*||-------------------||
E|-6---6---4---4-4-4-4---4-4---|-8---6---4---4-4-4-4---4-4--||-4-----------------||

What do all the symbols mean?
-----------------------------

W - whole note (semibreve)
H - half note (minim)
Q - quarter note (crotchet)
E - 8th note (quaver)
S - 16th note (semiquaver)
T - 32nd note (demisemi quaver)
X - 64th note (hemidemisemi quaver)
Composição: Chris MartinColaboração e revisão:
  • Élison Duarte

0 comentários

    mostrar mais comentários

    Conseguiu tocar?

    0tocaram0ainda não

    Grave um vídeo tocando Death And All His Friends e mande pra gente!

    00:00 / 00:00
    outros vídeos desta música
    repetirqualidadeautomática
    Outro vídeos desta música
      00:00 / 00:00
      automática
      OK