Cifra Club

Hymn For The Weekend

Coldplay

Tab de baixo: Principal
exibições 151
o baixo se inicia nesse trecho...So drink from me, drink from me...

G|-----------------------------------------------------|
D|-----------------------------------------------------|    (2x)
A|--------6-------------------------6------------------|      
E|--3--5---------3--2--1------3--5-------1--3--4--6----|

G|-----------------------------------------------------|
D|--------------------10-10-10-10-10/------------------|
A|-----------------------------------------------------|
E|-4--6h8-6--8h10-8-------------------4--6h8-6--8h10-8-|

G|-----------------------------------------------------|
D|-----------------------------------------------------|
A|--3-5-6-6-5-3----------------------------------------|
E|-3------------3-4------------------------------------|

Repete essa parte até o fim da música.

G|-----------------------------------------------------|
D|--------------------10-10-10-10-10/------------------|
A|-----------------------------------------------------|
E|-4--6h8-6--8h10-8-------------------4--6h8-6--8h10-8-|

G|-----------------------------------------------------|
D|-----------------------------------------------------|
A|--3-5-6-6-5-3----------------------------------------|
E|-3------------3-4------------------------------------|

Colaboração e revisão:
  • Lucas Cardoso

0 comentários

    mostrar mais comentários

    Conseguiu tocar?

    1tocaram0ainda não

    Grave um vídeo tocando Hymn For The Weekend e mande pra gente!

    00:00 / 00:00
    outros vídeos desta música
    repetirqualidadeautomática
    Outro vídeos desta música
      00:00 / 00:00
      automática
      OK