Cifra Club

Sky Full Of Stars

Coldplay

Tab de baixo: Principal
exibições 1.583
Pessoal esta cifra tirei de ouvido, e assistindo muito ao Guy Berryman tocar.
Por favor, em caso de correção enviem email pra mim : viniciuschagas@live.com
Vamos lá:

O interlúdio é só instrumental, e começa depois que o Chris canta os primeiros versos.

(Interlúdios)
G|-----------------------------------------------|
D|-----------------------------------------------|
A|-6-6-6--4-4------------9-9-9--9-9-8-8-8--------|
E|------------7-7-7--7-7-------------------6-6-6-|

G|---------------------------------------------|
D|---------------------------------------------|
A|-6-6-6--4-4------------9-9-9--9-9--------8-8-|
E|------------7-7-7--7-7------------9-9-9------|

G|---------------------------------------------|
D|---------------------------------------------|
A|-6-6-6--4-4------------9-9-9--9-9--------8-8-|
E|------------7-7-7--7-7------------9-9-9------|
G|-----------------------------------------------|
D|-----------------------------------------------|
A|-6-6-6--4-4------------9-9-9--9-9-8-8-8--------|
E|------------7-7-7--7-7-------------------6-6-6-|



Depois vem o riff do Guy Berryman, esta parte toque com palheta e perto da ponte do
baixo. Repete 6 X, mas com mais intensidade só nas primeiras 4 X.

Guy riff 1:55 > 2:40)
G-----------11~---------------11~----------------11~---------------10~--------------
D-----13~-------------9~------------------------------------------------------------
A -------------------------------------------9~-----------------8~------------------
E ----------------------------------------------------------------------------------


(Interlúdio de novo)


Bem ao chegar ao minuto 3:20, não toque interlúdio, comece a fazer esta sequência abaixo, é isto mesmo! Toque a Mi com o polegar e a Sol com o dedo médio.
Esta sequência até o final.

G|-8-8-8--8-8-10-10-10--10-10-11-11-11--11-11--11-11-~15-15-15-|
D|-------------------------------------------------------------|
A|-------------------------------------------------------------|
E|-7-7-7--7-7-9--9--9---9--9--11-11-11--11-11--11-11-~14-14-14-|
Colaboração e revisão:
  • Vinicius Chagas

0 comentários

    mostrar mais comentários

    Conseguiu tocar?

    0tocaram0ainda não

    Grave um vídeo tocando Sky Full Of Stars e mande pra gente!

    00:00 / 00:00
    outros vídeos desta música
    repetirqualidadeautomática
    Outro vídeos desta música
      00:00 / 00:00
      automática
      OK