Cifra Club

Não Sou Nada Sem Jesus

Communion

Cifra: Principal (violão e guitarra)
tom: C
Intro:  (C9  - F )2X

GUITARRA COM EFEITO DE DELAY

PARTE A

E|--------3-----------------------------
B|-----3------------------------8-------
G|--5-------------5----7----5----------- 3X
D|--------------------------------------
A|-----------3--------------------------
E|--------------------------------------

    PARTE B
E|-----------------1----1--0-0--------------------3-----------
B|-----------------1------------3--1-----1--3—1---------------
G|--------0--------2------------------------------------------
D|-----0-----------3------------------------------------------
A|--3------------------------------3--------------------------
E|-----------1(Fá)--------------------------------------------
   (Teclado)

PARTE C

E|-----------------1-----------------3-----------
B|-----------------1---------1--3—1--------------
G|--------0--------2-----------------------------
D|-----0-----------3-----------------------------
A|--3--------------------------------------------
E|-----------1(Fá)-------------------------------
   (Teclado)

Versão 2 (Para quem toca Guitarra Solo e Base ou Violão Base e Solo)

PARTE A

E|--------------------------3----------
B|----------------1--3--1--------------
G|--------0----------------------------
D|-----0-------------------------------
A|--3--------3-------------------------
E|-------------------------------------
     (Teclado)



Guitarra (versão 2) PARTE B

E|--------3--------1-----13---12-12---10---8-----------------------
B|------3----------1----------------------------------------8------
G|----5------------2----(10)-(9)-(9)—-(7)—(5)----5--7---5----------
D|-----------3(Fá)-------------------------------------------------
A|-----------------------------------------------------------------
E|-----------------------------------------------------------------
   (Teclado)         (OITAVADO FICA LEGAL TAMBÉM OBS: DENTRO PARENTESES)




C9                        G           Esus4   E
perdido nessa estrada sem nenhuma direção
        F9                    G9               G
como um cego em desespero sem alguém pra dar a mão
C9                   G         Esus4   E
eu me encontrava sem destino a vagar
F9                 G
não havia nada que pudesse me salvar

C/E     F                     C/E      C
mas ele viu e me estendeu sua poderosa mão
Dm7           C               F9          G
me deu forças pra vencer e eu pude ver então


Refrão:

         C9
não sou nada sem Jesus
       Em7
ele é tudo para mim
     F            Csus4
é a razão do meu viver
    Bb9           F/A
sua graça não tem fim
G/B              C9
e eu não consigo nem pensar
        Em7
no que faria sem Jesus
         F6/D  G           C9
não sou nada, nada sem Jesus.

                  F9                          F
Não sei viver sem ti Senhor, não sou nada sem ti.
C9                                G          Esus4   E
não há nada de bom em mim que não venha de Jesus
F9                       G9             G
eu sou transformado pelo brilho de sua luz
C9                                  G            Esus4   E
no momento em que eu gritei pedindo me ajuda ó Senhor

       F9                      G                C/E
eu vou cair no abismo, pai, me ajuda, por favor,
F                           C/E      C
ele me ouviu e estendeu sua poderosa mão
Dm7           C               F9       G4     G
me deu forças pra vencer e eu pude ver então


Refrão:

        C9
não sou nada sem Jesus
      Em7
ele é tudo para mim
    F            Csus4
é a razão do meu viver
    Bb9            F/A
sua graça não tem fim
G/B              C9
e eu não consigo nem pensar
       Em7
no que faria sem Jesus
        F6/D    G           C9
não sou nada,   nada sem Jesus


PONTE:

        Bb9
como um pássaro sem asas
   C9
ou súdito sem rei
    Dm7            C/E              F            G  G4
sem jesus na minha vida eu sei,     jamais serei feliz. (Oh o oh ohhhh)


REPETE REFRÃO TROCA NOTAS:

        A4/D
não sou nada sem Jesus
      D9/F#
ele é tudo para mim
    Em7          D9/F#
é a razão do meu viver
    C9            Bm5+
sua graça não tem fim
Bb6              A4
e eu não consigo nem pensar
       Bm7
no que faria sem Jesus

        C9            Bm5+                Bb6
não sou nada,(não sou nada),      não sou nada,( nada)
A4       Bm5+       A4                  Em7
nada sem Jesus (uhhhss),        não sou nada
A4              Bm7        A4             Em7
nada sem Jesus (uhhhss) ,         não sou nada ,

A4                        D5(9)
nada sem Jesu.............usssss
Composição de SUZANNE HIRLE
Colaboração e revisão:
  • rogerio
6.466 exibições
    • ½ Tom
    • A
    • Bb
    • B
    • C
    • Db
    • D
    • Eb
    • E
    • F
    • F#
    • G
    • Ab
  • Adicionar à lista

    0 comentários

    Ver todos os comentários
    00:00 / 00:00
    Outros vídeos desta música
    Repetir Qualidade Automático
    Outros vídeos desta música
    00:00 / 00:00
    Automático

    Cifra Club Pro

    Aproveite o Cifra Club com benefícios exclusivos e sem anúncios
    Cifra Club Pro
    Aproveite o Cifra Club com benefícios exclusivos e sem anúncios
    OK