Cifra Club

Queima de Novo

Comunidade Católica Colo de Deus

Cifra: Aula-completa (violão e guitarra)
Tom: Eb (forma dos acordes no tom de B) Capotraste na 4ª casa
[Intro] G  Em7  G  Em7

[TAB -Dedilhado Introdução]

Parte 1 de 4
E|-----7-------7--------7-----5-------5--------5-------|
B|---0---0---0---0----0-----0---0---0---0----0---------|
G|-----------------------------------------------------|
D|-5-------5-------5------5-------5-------5------------|
A|-----------------------------------------------------|
E|-----------------------------------------------------|

Parte 2 de 4
E|-----2-------2--------2-----2-------2--------2-------|
B|---0---0---0---0----0-----0---0---0---0----0---------|
G|-----------------------------------------------------|
D|-2-------2-------2------2-------2-------2------------|
A|-----------------------------------------------------|
E|-----------------------------------------------------|

Parte 3 de 4
E|-----7-------7--------7-----5-------5--------5-------|
B|---0---0---0---0----0-----0---0---0---0----0---------|
G|-----------------------------------------------------|
D|-5-------5-------5------5-------5-------5------------|
A|-----------------------------------------------------|
E|-----------------------------------------------------|

Parte 4 de 4
E|-----2-------2--------2-2----------------------------|
B|---0---0---0---0----0---0----------------------------|
G|------------------------0----------------------------|
D|-2-------2-------2------2----------------------------|
A|-----------------------------------------------------|
E|-----------------------------------------------------|

[Primeira parte]

               Em7                C9
Sarça que só queima, que não se apaga
             G                  D/F#
Somos tua Igreja, viemos te adorar
             Em7             C9
Neste teu altar, somos sacrifício
              G           D/F#  Am7  D    
Vem nos consumir, estamos aqui  Aqu__i

[Refrão]

              G
Foi a tua presença 
                  D
Que nos trouxe aqui, Senhor
            C9
Não desistiremos
             Em7       D/F#
De te perseguir Até te encontrar

                G
Diante da tua glória
            D  
Não podemos   ficar de pé
               C9              Em7
Mostra quem Tu és vem nos visitar
             D/F#        G Em7
Nos fazer queimar, de novo

[TAB -Dedilhado 1º refrão]

Parte 3 de 4
E|-----7-------7--------7-----5-------5--------5-------|
B|---0---0---0---0----0-----0---0---0---0----0---------|
G|-----------------------------------------------------|
D|-5-------5-------5------5-------5-------5------------|
A|-----------------------------------------------------|
E|-----------------------------------------------------|

Parte 4 de 4
E|-----2-------2--------2-2----------------------------|
B|---0---0---0---0----0---0----------------------------|
G|------------------------0----------------------------|
D|-2-------2-------2------2----------------------------|
A|-----------------------------------------------------|
E|-----------------------------------------------------|

[Primeira parte]

               Em7                C9
Sarça que só queima, que não se apaga
             G                  D/F#
Somos tua Igreja, viemos te adorar
             Em7             C9
Neste teu altar, somos sacrifício
              G           D/F#  Am7  D    
Vem nos consumir, estamos aqui  Aqu__i

[Refrão]

              G
Foi a tua presença 
                  D
Que nos trouxe aqui, Senhor
            C9
Não desistiremos
             Em7       D/F#
De te perseguir Até te encontrar

                G
Diante da tua glória
            D  
Não podemos   ficar de pé
               C9              Em7
Mostra quem Tu és vem nos visitar

             D/F#
Nos fazer queimar
      G              Em7  G  Em7
De novo...    de novo

[Segunda parte]

G
  Manda teu fogo, manda teu fogo
Em7
    Queima de novo, queima de novo
G
  Manda teu fogo, manda teu fogo
Em7
    Queima de novo, queima de novo

G
  Manda teu fogo, manda teu fogo
Em7
    Queima de novo, queima de novo
G
  Manda teu fogo, manda teu fogo
Em7
    Queima de novo

[TAB -Dedilhado 2ª parte da música]

Parte 1 de 4
E|-----7-------7--------7-----5-------5--------5-------|
B|---0---0---0---0----0-----0---0---0---0----0---------|
G|-----------------------------------------------------|
D|-5-------5-------5------5-------5-------5------------|
A|-----------------------------------------------------|
E|-----------------------------------------------------|

Parte 2 de 4
E|-----2-------2--------2-----2-------2--------2-------|
B|---0---0---0---0----0-----0---0---0---0----0---------|
G|-----------------------------------------------------|
D|-2-------2-------2------2-------2-------2------------|
A|-----------------------------------------------------|
E|-----------------------------------------------------|

[Refrão final]

              G
Foi a tua presença 
                  D
Que nos trouxe aqui, Senhor
            C9
Não desistiremos
             Em7       D/F#
De te perseguir Até te encontrar

                G
Diante da tua glória
            D  
Não podemos   ficar de pé
               C9              Em7
Mostra quem Tu és vem nos visitar

             D/F#
Nos fazer queimar
      G  Em7  G  Em7
De novo

[TAB -Dedilhado Refrão final]

Parte 1 de 4
E|-----7-------7--------7-----5-------5--------5-------|
B|---0---0---0---0----0-----0---0---0---0----0---------|
G|-----------------------------------------------------|
D|-5-------5-------5------5-------5-------5------------|
A|-----------------------------------------------------|
E|-----------------------------------------------------|

Parte 2 de 4
E|-----2-------2--------2-----2-------2--------2-------|
B|---0---0---0---0----0-----0---0---0---0----0---------|
G|-----------------------------------------------------|
D|-2-------2-------2------2-------2-------2------------|
A|-----------------------------------------------------|
E|-----------------------------------------------------|

Parte 3 de 4
E|-----7-------7--------7-----5-------5--------5-------|
B|---0---0---0---0----0-----0---0---0---0----0---------|
G|-----------------------------------------------------|
D|-5-------5-------5------5-------5-------5------------|
A|-----------------------------------------------------|
E|-----------------------------------------------------|

Parte 4 de 4
E|-----2-------2--------2-2----------------------------|
B|---0---0---0---0----0---0----------------------------|
G|------------------------0----------------------------|
D|-2-------2-------2------2----------------------------|
A|-----------------------------------------------------|
E|-----------------------------------------------------|
exibições 1.245
Acordes para:
    Composição: Flávio Vitor Jr Colaboração e revisão:
    • Caico Antunes

    0 comentários

    mostrar mais comentários

    Conseguiu tocar?

    3 tocaram 0 ainda não

    Grave um vídeo tocando Queima de Novo e mande pra gente!

    00:00 / 00:00
    outros vídeos desta música
    repetir qualidade Automático
    Outros vídeos desta música
    00:00 / 00:00
    Automático
    Capítulos
    • Tocando a música
    • Apresentação / Equipamentos
    • Acordes introdução
    • Tocando introdução
    • Ensinando ritmo da introdução
    • Acordes primeira parte
    • Tocando primeira parte
    • Dicas refrão
    • Tocando refrão
    • Ensinando refrão
    • Dicas repetições
    • Tocando solo
    • Ensinando solo
    • Ensinando solo - Parte 1
    • Ensinando solo - Parte 2
    • Ensinando solo - Parte 3
    • Ensinando solo - Parte 4
    • Encerramento
    OK